Cifra Club

My Escape

Rufio

Tab de baixo: Principal
16. MY ESCAPE
   
   Tuning: DADG

  Intro

G|---------------------|
D|---------------------| 
A|--555555-5577-99-10--| 
D|---------------------|

G|---------------------------------------|
D|---------------------------------------| 
A|----------------0----------------------| 
D|--0-2-0x--0-2-0x--545--0-2-0x--0-2-0x--|

  Verse
  "I cannot fake this any longer...."

G|-----------------------------|
D|-----------------------------| (x2)
A|--111111-333333-55555555555--| 
D|-----------------------------|

G|-----------------------------------|
D|-----------------------------------| 
A|--111111-333333-5750-----5750------| 
D|---------------------545------545--|

G|------------------------------|
D|------------------------------| 
A|--111111-333333-55xx55xx55x5--| 
D|------------------------------|

  Chorus
  "So I'm cutting out, cutting out...."

G|-----------------------------------|
D|-----------------------------------|
A|--2222x-2--------------------------|
D|----------0000x-0-5555x-5-2222x-2--|

G|--------------------------------|
D|--------------------------------|
A|--2222x-2---------55xx55xx55x5--|
D|----------0000x-0---------------|

G|-----------------------------------|
D|-----------------------------------|
A|--2222x-2--------------------------|
D|----------0000x-0-5555x-5-2222x-2--|

G|--------------------------------|
D|--------------------------------|
A|--2222x-2---------55xx55xx55x5--|
D|----------0000x-0---------------|

  Intro

G|------------------|
D|------------------| 
A|------------------| 
D|--0-2-0x--0-2-0x--|

  Verse
  "Somehow the music lasts for me now......."

G|-----------------------------|
D|-----------------------------| (x2)
A|--111111-333333-55555555555--| 
D|-----------------------------|

G|-----------------------------------|
D|-----------------------------------| 
A|--111111-333333-5750-----5750------| 
D|---------------------545------545--|

G|------------------------------|
D|------------------------------| 
A|--111111-333333-55xx55xx55x5--| 
D|------------------------------|

  Chorus
  "So I'm cutting out, cutting out...."

G|-----------------------------------|
D|-----------------------------------|
A|--2222x-2--------------------------|
D|----------0000x-0-5555x-5-2222x-2--|

G|--------------------------------|
D|--------------------------------|
A|--2222x-2---------55xx55xx55x5--|
D|----------0000x-0---------------|

G|-----------------------------------|
D|-----------------------------------|
A|--2222x-2--------------------------|
D|----------0000x-0-5555x-5-2222x-2--|

G|---------------------------------------------|
D|---------------------------------------------|
A|--2222x-2---------55xx55xx55x5-88xx88xx88x8--|
D|----------0000x-0----------------------------|

  Bridge

G|------------------------------|
D|---------------------754------| 
A|--111111-333333-55555---7532--| 
D|------------------------------|

G|-------------------976-9------| 
D|----------------------9-986---| 
A|--111111-333333-555--------9--| 
D|------------------------------|

G|------------------------------| 
D|---------------------7875-----| 
A|--111111-333333-55555----785--| 
D|------------------------------|

G|------|
D|------| 
A|--5~--| 
D|------|

  Intro

G|---------------------|
D|---------------------| 
A|--555555-5577-99-10--| 
D|---------------------|


  Chorus
  "So I'm cutting out, cutting out...."

G|-----------------------------------|
D|-----------------------------------|
A|--5555x-2--------------------------|
D|----------0000x-0-5555x-5-2222x-2--|

G|-------------------------------------|
D|-------------------------------------|
A|-------------------------------------|
D|--5555x-5-2222x-2-5555x-5-7777-8888--|

G|-----------------------------------|
D|-----------------------------------|
A|--2222x-2--------------------------|
D|----------0000x-0-5555x-5-2222x-2--|

G|-------------------------------------|
D|-------------------------------------|
A|-------------------------------------|
D|--5555x-5-2222x-2-5555x-5-7777-8888--|

  Post-chorus
  "Cause it's flying by, change your mind......"

G|------------------------------------|
D|------42----------------------------|
A|--2222--2---------------------------|
D|----------0000000-5555555-22222222--|

G|----------------------------------------|
D|----------------------------------------|
A|----------------------------------------|
D|--2-5555555-22222222-5555555-7777-8888--|

  Intro
  
G|-------------------------------|
D|-------------------------------| 
A|----------------0--------------| 
D|--0-2-0x--0-2-0x--545--0-2-0x--|

  End

G|------|
D|------| 
A|--5~--| 
D|------|





Legend Tab

| /  slide Up
| \  slide Down
| h  Hammer-On
| p  Pull-Off
| ~  vibrato
| x  Mute Note

If you have any questions,comments.....*
*

Composição de Jon Berry / Rufio
330 exibições

0 comentários

Ver todos os comentários

Conseguiu tocar?

0 Tocaram 0 Ainda não

Grave um vídeo tocando My Escape e nos envie!

00:00 / 00:00
Outros vídeos desta música
Repetir Qualidade Automático
Outros vídeos desta música
00:00 / 00:00
Automático

Cifra Club Pro

Aproveite o Cifra Club com benefícios exclusivos e sem anúncios
Cifra Club Pro
Aproveite o Cifra Club com benefícios exclusivos e sem anúncios
OK