Cifra Club

On Our Own

Rufio

Cifra: Principal (violão e guitarra)
tom: F
Intro/Verso
E-----------------------------
B-----------------------------
G-----------------------0-----
D--4-4-4h7-4p0--0-----2---2/--
A--0-----------1--1-3---------
D--0--------------------------

Refrão (2x)
E-------0----1-------
B--1----1----3-------
G--2----2----2----3--
D--3----2----0----3--
A--0----0---------1--
D--------------------

Fim
E-----------------------------
B-----------------------------
G-----------------------0-----
D--4-4-4h7-4p0--0-----2---2~--
A--0-----------1--1-3---------
D--0--------------------------
Composição de Rufio / Scott Sellers
Colaboração e revisão:
  • Marco Aurélio
1.184 exibições
    • ½ Tom
    • A
    • Bb
    • B
    • C
    • Db
    • D
    • Eb
    • E
    • F
    • F#
    • G
    • Ab
  • Adicionar à lista

    0 comentários

    Ver todos os comentários

    Conseguiu tocar?

    0 Tocaram 0 Ainda não

    Grave um vídeo tocando On Our Own e nos envie!

    00:00 / 00:00
    Outros vídeos desta música
    Repetir Qualidade Automático
    Outros vídeos desta música
    00:00 / 00:00
    Automático

    Cifra Club Pro

    Aproveite o Cifra Club com benefícios exclusivos e sem anúncios
    Cifra Club Pro
    Aproveite o Cifra Club com benefícios exclusivos e sem anúncios
    OK