Cifra Club

One Slowdance

Rufio

Cifra: Principal (violão e guitarra)
tom: E
Guitarra 1 - Partes:
Intro (x2) 
e|---------------------------------------------------------------------------| 
B|-------4-------------------------------------------------------------------| 
G|-----4---4---------1-----------4-------1-----3---------4-----------1-------| 
D|---4-------4-----2---2-------6---6-------2-----4-----6---6-------2---2-----| 
A|-2-------------2-------2---6-------6---------------6-------6---2-------2---| 
E|-------------0-----------4-----------0-----2-----4-----------0-------------| 

e|-----------------------------------------| 
B|-------4---------------------------------| 
G|-----4---4---------3---------------------| 
D|---4-------4-----4---4-------------------| 
A|-2-------------4-------4-----------------| 
E|-------------2---------------------------| 

Verso (4x) "You're standing there alone..." 
e|---------------------------------------------------------------------------| 
B|-------4-------------------------------------------------------------------| 
G|-----4---4---------1-----------4-------1-----3-----------------------------| 
D|---4-------4-----2---2-------6---6-------2-----4---------------------------| 
A|-2-------------2-------2---6-------6---------------------------------------| 
E|-------------0-----------4-----------0-----2-------------------------------| 

Pre-refrão (x4) - "I look you in the..." 
e|---------------------------------------------------------------------------| 
B|---------------------------------------------------------------------------| 
G|-------------------------------------4-4-4---------------------------------| 
D|-2-2-2-2-2-2-4-4-4-4-4-4-6-6-6-6-6-6-4-4-4-4-4-4---------------------------| 
A|-2-2-2-2-2-2-4-4-4-4-4-4-6-6-6-6-6-6-2-2-2-4-4-4---------------------------| 
E|-0-0-0-0-0-0-2-2-2-2-2-2-4-4-4-4-4-4-------2-2-2---------------------------| 

Refrão (x2) "You and me dancing the night..." 
e|---------------------------------------------------------------------------| 
B|---------------------------------------------------------------------------| 
G|-4-4-4-4-4-4---------------------------------------------------------------| 
D|-4-4-4-4-4-4-2-2-2-2-2-2-6-6-6-6-6-6-2-2-2-4-4-4-6-6-6-6-6-6-2-2-2-2-2-2---| 
A|-2-2-2-2-2-2-2-2-2-2-2-2-6-6-6-6-6-6-2-2-2-4-4-4-6-6-6-6-6-6-2-2-2-2-2-2---| 
E|-------------0-0-0-0-0-0-4-4-4-4-4-4-0-0-0-2-2-2-4-4-4-4-4-4-0-0-0-0-0-0---| 

e|------------------------------------------------------| 
B|------------------------------------------------------| 
G|-4-4-4-4-4-4------------------------------------------| 
D|-4-4-4-4-4-4-4-4-4-4-4-4------------------------------| 
A|-2-2-2-2-2-2-4-4-4-4-4-4------------------------------| 
E|-------------2-2-2-2-2-2------------------------------| 

Repetir intro(x1) 

Verso 2 - Palm muted (x4) 
e|---------------------------------------------------------------------------| 
B|---------------------------------------------------------------------------| 
G|------------4-4-4-4-4-4----------------------------------------------------| 
D|-4-4-4-4----4-4-4-4-4-4-2-2-2-2-2-2-6-6-6-6-6-6-4-4-4-4-4-4----------------| 
A|-4-4-4-4----2-2-2-2-2-2-2-2-2-2-2-2-6-6-6-6-6-6-4-4-4-4-4-4----------------| 
E|-2-2-2-2----------------0-0-0-0-0-0-4-4-4-4-4-4-2-2-2-2-2-2----------------| 

Repetir pré-refrão

Repetir refrão

Ponte "We don't have to talk..." 
e|---------------------------------------------------------------------------| 
B|---------------------------------------------------------------------------| 
G|-6-6-6-6-6-6-9-9-9-9-9-9-4-4-4-4-4-4-------------6-6-6-6-6-6-9-9-9-9-9-9---| 
D|-6-6-6-6-6-6-9-9-9-9-9-9-4-4-4-4-4-4-4-4-4-4-4-4-6-6-6-6-6-6-9-9-9-9-9-9---| 
A|-4-4-4-4-4-4-7-7-7-7-7-7-2-2-2-2-2-2-4-4-4-4-4-4-4-4-4-4-4-4-7-7-7-7-7-7---| 
E|-------------------------------------2-2-2-2-2-2---------------------------| 

e|---------------------------------------------------------------------------| 
B|---------------------------------------------------------------------------| 
G|-8-8-8-\11-11-11-/6-6-6-\11-11-11--6-6-6-6-6-6-9-9-9-9-9-9-4-4-4-4-4-4-----| 
D|-x-x-x---x--x--x--x-x-x---x--x--x--6-6-6-6-6-6-9-9-9-9-9-9-4-4-4-4-4-4-----| 
A|-6-6-6-\-9--9--9-/4-4-4-\-9--9--9--4-4-4-4-4-4-7-7-7-7-7-7-2-2-2-2-2-2-----| 
E|---------------------------------------------------------------------------| 

e|---------------------------------------------------------------------------| 
B|---------------------------------------------------------------------------| 
G|-------------6-6-6-6-6-6-9-9-9-9-9-9--11-11-11-11-11-11--------------------| 
D|-4-4-4-4-4-4-6-6-6-6-6-6-9-9-9-9-9-9---x--x--x--x--x--x--------------------| 
A|-4-4-4-4-4-4-4-4-4-4-4-4-7-7-7-7-7-7---9--9--9--9--9--9--------------------| 
E|-2-2-2-2-2-2---------------------------------------------------------------| 

Repetir refrão

Finalzinho - Abafado
e|----------------------------------|----------------------------------------| 
B|----------------------------------|----------------------------------------| 
G|----------------------------------|-------------------4--3-----------------| 
D|----------------------------------|-------------4-----------4--------------| 
A|-2---2----------------------------|----------2-----2-----------------------| 
E|-------0---0-2-4---4--0--2--------|----------------------------------------| 

OUTRO 
e|---------------------------------------------------------------------------| 
B|---------------------------------------------------------------------------| 
G|-11-11-9-8-8-9-9-11-11-9-8-8-9-9-11-11-9-8-8-9-9-11-11-14-14-14-13-14------| 
D|--x--x-x-x-x-x-x--x--x-x-x-x-x-x--x--x-x-x-x-x-x--x--x--x--x--x--x--x------| 
A|--9--9-7-6-6-7-7--9--9-7-6-6-7-7--9--9-7-6-6-7-7--9--9-12-12-12-11-12------| 
E|---------------------------------------------------------------------------| 

e|---------------------------------------------------------------------------| 
B|---------------------------------------------------------------------------| 
G|-16-16-15-16-16-15-16-16-18-20-21-20-20-20-20-20-20-16-16-16-16-16-15------| 
D|--x--x--x--x--x--x--x--x--x--x--x--x--x--x--x--x--x--x--x--x--x--x--x------| 
A|-14-14-13-14-14-13-14-14-16-18-19-18-18-18-18-18-18-14-14-14-14-14-13------| 
E|---------------------------------------------------------------------------| 

e|---------------------------------------------------------------------------| 
B|---------------------------------------------------------------------------| 
G|-16-16-16-16-16-16-15~--------16~------------------------------------------| 
D|--x--x--x--x--x--x--x----------x-------------------------------------------| 
A|-14-14-14-14-14-14-13~--------14~------------------------------------------| 
E|---------------------------------------------------------------------------|

Guitarra 2 - Partes:
Intro (2x) 
e|---------------------------------------------------------------------------| 
B|---------------------------------------------------------------------------| 
G|---------------------------------------------------------------------------| 
D|-------1---------4---4-2-1---1---------1-----------------------------------| 
A|2--2h4---4-2-1-2---2-------4---4-2-2h4---4-2-1-2~-1~-----------------------| 
E|---------------------------------------------------------------------------| 

Verso (16x) "You're standing there alone..." 
e|------7p6------------------------------------------------------------------| 
B|--7-------7----------------------------------------------------------------| 
G|4---4----------------------------------------------------------------------| 
D|---------------------------------------------------------------------------| 
A|---------------------------------------------------------------------------| 
E|---------------------------------------------------------------------------| 

Pre-refrão "I look you in the eyes..." 
e|---------------------------------------------------------------------------| 
B|---------------------------------------------------------------------------| 
G|---------------------------------------------------------------------------| 
D|--------------------------4---4-2-1---1---------1---------4---4-2-1---1----| 
A|7-7-7-7-6-6-4-4-4-4-2-1-2---2-------4---4-2-2h4---4-2-1-2---2-------4---4--| 
E|---------------------------------------------------------------------------| 

e|---------------------------------------------------------------------------| 
B|---------------------------------------------------------------------------| 
G|---------------------------------------------------------------------------| 
D|--------------------------4---4-2-1---1---------1--------------------------| 
A|7-7-7-7-6-6-4-4-4-4-2-1-2---2-------4---4-2-2h4---4-2-1-2~--1x-------------| 
E|---------------------------------------------------------------------------| 

Refrão "You and me dancing the night..." (2x) 
e|---------------------------------------------------------------------------| 
B|---------------------------------------------------------------------------| 
G|8-8-6-4-4-6-8-8-6-4-4-6-8-8-8-8-8-6-4-4-4-4-4-4-4-4-4-4-4-4-3-3-3-3-3-3----| 
D|x-x-x-x-x-x-x-x-x-x-x-x-x-x-x-x-x-x-x-x-x-x-x-x-x-x-x-x-x-x-x-x-x-x-x-x----| 
A|6-6-4-2-2-4-6-6-4-2-2-4-6-6-6-6-6-4-2-2-2-2-2-2-2-2-2-2-2-2-1-1-1-1-1-1----| 
E|---------------------------------------------------------------------------| 

Repetir Intro/Verso/Pré-refrão/Refrão

Ponte"We don't have to talk..." (4x) 
e|7-----7-----7-----7-----7-----7-----6-----6--------------------------------| 
B|--7-----7-----7-----7-----7-----7-----7-----7------------------------------| 
G|----4-----4-----4-----4-----4-----4-----4-----4----------------------------| 
D|---------------------------------------------------------------------------| 
A|---------------------------------------------------------------------------| 
E|---------------------------------------------------------------------------| 

e|---------------------------------------------------------------------------| 
B|---------------------------------------------------------------------------| 
G|3-3-3-3-3-3x---------------------------------------------------------------| 
D|x-x-x-x-x-x----------------------------------------------------------------| 
A|1-1-1-1-1-1x---------------------------------------------------------------| 
E|---------------------------------------------------------------------------| 

Repetir refrão

Finalzinho - Abafado
e|---------------------------------------------------------------------------| 
B|---------------------------------------------------------------------------| 
G|---------------------------------------------------------------------------| 
D|-4---4---------------------------------------------------------------------| 
A|-------2---2-4-6---6-2-4---------------------------------------------------| 
E|---------------------------------------------------------------------------| 

e|---------------------------------------------------------------------------| 
B|---------------------------------------------------------------------------| 
G|---------------------------------------------------------------------------| 
D|4-4-4-4-4-4-4-4-4-4-4-4-4-4-2-2-1-1-2-2-1-1--------------------------------| 
A|--------------------------------------------4-4----------------------------| 
E|---------------------------------------------------------------------------| 

e|---------------------------------------------------------------------------| 
B|---------------------------------------------------------------------------| 
G|4-4-4-4-4-4----------------------------------------------------------------| 
D|4-4-4-4-4-4-2-2-2-2-2-4-6-6-6-6-6-6-2-2-2-4-4-4----------------------------| 
A|2-2-2-2-2-2-2-2-2-2-2-4-6-6-6-6-6-6-2-2-2-4-4-4----------------------------| 
E|------------0-0-0-0-0-2-4-4-4-4-4-4-0-0-0-2-2-2----------------------------| 

Outro: 
e|---------------------------------------------------------------------------| 
B|---------------------------------------------------------------------------| 
G|8-8-6-4-4-6-8-8-6-4-4-6-4-4-6-4-4-6-4-4-4-4-4-4-3-3-3-3-3-3----------------| 
D|x-x-x-x-x-x-x-x-x-x-x-x-x-x-x-x-x-x-x-x-x-x-x-x-x-x-x-x-x-x----------------| 
A|6-6-4-2-2-4-6-6-4-2-2-4-6-6-4-2-2-4-2-2-2-2-2-2-1-1-1-1-1-1----------------| 
E|---------------------------------------------------------------------------| 

Outro Cont'd: 
e|---------------------------------------------------------------------------| 
B|---------------------------------------------------------------------------| 
G|8-8-6-4-4-6-8-8-6-4-4-6-8-8-8-8-8-6-4-4-4-4-4-6-4-4-4-4-4-4-3-3-3-3-3-3-8~-| 
D|x-x-x-x-x-x-x-x-x-x-x-x-x-x-x-x-x-x-x-x-x-x-x-x-x-x-x-x-x-x-x-x-x-x-x-x-x--| 
A|6-6-4-2-2-4-6-6-4-2-2-4-6-6-6-6-6-4-2-2-2-2-2-4-2-2-2-2-2-2-1-1-1-1-1-1-6~-| 
E|---------------------------------------------------------------------------| 
00:00 / 00:00
Outros vídeos desta música
Repetir
Outros vídeos desta música
Composição de Rufio
Colaboração e revisão:
  • Marco Aurélio
4.837 exibições
    • ½ Tom
    • A
    • Bb
    • B
    • C
    • Db
    • D
    • Eb
    • E
    • F
    • F#
    • G
    • Ab
  • Adicionar à lista

    0 comentários

    Ver todos os comentários

    Conseguiu tocar?

    0 Tocaram 0 Ainda não

    Grave um vídeo tocando One Slowdance e nos envie!

    Entre para oCifra Club PRO

    Tenha acesso a benefícios exclusivos no App e no Site

    • Chega de anúncios

    • Prioridade de compra em lançamentos

    • Mais recursos no app do Afinador

    • Atendimento Prioritário

    • Descontos nos produtos Cifra Club

    • Ajude a produzir mais conteúdo

    00:00 / 00:00

    Cifra Club Pro

    Aproveite o Cifra Club com benefícios exclusivos e sem anúncios
    Cifra Club Pro
    Aproveite o Cifra Club com benefícios exclusivos e sem anúncios
    OK