Cifra Club

Save The World

Rufio

Cifra: Principal (violão e guitarra)
tom: E
/ \ - desliza
PM... - abafado 
~ - deixar o som correndo 
8x - abafar depois estrumento 
h - hammer on 
p - pull off 

Guitarra 1 partes: 
Intro: Guitarra 1 
e|-----------------------------------| 
B|-----------------------------------| 
G|13--11--9/---9-8x---9-8-9-9-8------| 
D|-x---x--x----x-x----x-x-x-x-x------| 
A|11---9--7/---7-6x---7-6-7-7-6------| 
E|-----------------------------------| 

Intro continuação: Guitarra 1 (3x) 
e|---------------------------------------------------------------------------| 
B|---------------------------------------------------------------------------| 
G|9----9----9----9----9----9----9-8-13-13-13-14-16-16-16-14-13---------------| 
D|--11---11---11---11---11---11------x--x--x--x--x--x--x--x--x---------------| 
A|----------------------------------11-11-11-12-14-14-14-12-11---------------| 
E|---------------------------------------------------------------------------| 
PM........................... 

Intro continuação: Guitarra 1 (2x) 
e|-------------------------------------------------=------| 
B|--------------------------------------------------------| 
G|--------------------------------9-9-9-8-8-8-8-----------| 
D|9-9-9-----9-9-9-6-7-9-9-9-9-----x-x-x-x-x-x-x-----------| 
A|7-7-7-6-7-7-7-7-------7-7-7-6-7-7-7-7-6-6-6-6-----------| 
E|--------------------------------------------------------| 
. . . . . . 

Verso 1: Guitarra 1 "You pull me by the arms..." 
e|---------------------------------------------------------------------------| 
B|---------------------------------------------------------------------------| 
G|------------------------------------------------6-6-6-6-6-6-4-4-4-4-4-4----| 
D|7-7-7-7-7-7-7-7-7-7-7-7-9-9-9-9-9-9-9-9-9-9-9-9-6-6-6-6-6-6-4-4-4-4-4-4----| 
A|7-7-7-7-7-7-7-7-7-7-7-7-9-9-9-9-9-9-9-9-9-9-9-9-4-4-4-4-4-4-2-2-2-2-2-2----| 
E|5-5-5-5-5-5-5-5-5-5-5-5-7-7-7-7-7-7-7-7-7-7-7-7----------------------------| 

Verso 1 continuação: Guitarra 1 
e|---------------------------------------------------------------------------| 
B|---------------------------------------------------------------------------| 
G|----------------------------------6-6-6-6-6-6-4-4-4-4-4-4------------------| 
D|7-7-7-7-7-7-7-7-7-6-6-6-7~---9~---6-6-6-6-6-6-4-4-4-4-4-4-7-7-7-7-7-7-7-7-7| 
A|7-7-7-7-7-7-7-7-7-6-6-6-7~---9~---4-4-4-4-4-4-2-2-2-2-2-2-7-7-7-7-7-7-7-7-7| 
E|5-5-5-5-5-5-5-5-5-4-4-4-5~---7~---------------------------5-5-5-5-5-5-5-5-5| 
. . 

Verso 1 continuação: Guitarra 1 
e|------------------------| 
B|------------------------| 
G|------------------------| 
D|6-6-6-7~---9~-----------| 
A|6-6-6-7~---9~-----------| 
E|4-4-4-5~---7~-----------| 
. . 

Refrão: Guitarra 1 "Lets save the world..." (2x) 
e|---------------------------------------------------------------------------| 
B|---------------------------------------------------------------------------| 
G|9-9-9-9-9-9-9-9-9-9-9-9-9-9-9-9---------------------------------6-6-6-6-6-6| 
D|9-9-9-9-9-9-9-9-9-9-9-9-9-9-9-9-7-7-7-7-7-7-7-7-7-7-7-7-7-7-7-7-6-6-6-6-6-6| 
A|7-7-7-7-7-7-7-7-7-7-7-7-7-7-7-7-7-7-7-7-7-7-7-7-7-7-7-7-7-7-7-7-4-4-4-4-4-4| 
E|--------------------------------5-5-5-5-5-5-5-5-5-5-5-5-5-5-5-5------------| 
......... ......... ......... ......... ..... 

Refrão continuação: Guitarra 1 
e|-----------------------------------------------------| 
B|-----------------------------------------------------| 
G|6-6-6-6-6-6-6-6-6-6----------------------------------| 
D|6-6-6-6-6-6-6-6-6-6-7-7-7-7-7-7-9-9-9-9-9-9----------| 
A|4-4-4-4-4-4-4-4-4-4-7-7-7-7-7-7-9-9-9-9-9-9----------| 
E|--------------------5-5-5-5-5-5-7-7-7-7-7-7----------| 
... ......... 

Fim do refrão: Guitarr 1  
e|---------------------| 
B|---------------------| 
G|9-8-9-8-9-8x---------| 
D|x-x-x-x-x-x----------| 
A|7-6-7-6-7-6x---------| 
E|---------------------| 

Intervalo: Guitarra 1 
e|-----------------------------------------| 
B|-----------------------------------------| 
G|6x--6x--6x--9-8x----9-8-9-9-8------------| 
D|x---x---x---x-x-----x-x-x-x-x------------| 
A|4x--4x--4x--7-6x----7-6-7-7-6------------| 
E|-----------------------------------------| 

Repetir 2º parte da intro: (1x) 

Verso 2: Guitarra 1 "So spread the word..." 
e|---------------------------------------------------------------------------| 
B|---------------------------------------------------------------------------| 
G|6-6-6-6-6-6----------------------------------------------------------------| 
D|6-6-6-6-6-6-7-7-7-7-7-7-7-7-7-7-7-7-9-9-9-9-9-9----------------------------| 
A|4-4-4-4-4-4-7-7-7-7-7-7-7-7-7-7-7-7-9-9-9-9-9-9----------------------------| 
E|------------5-5-5-5-5-5-4-4-4-4-4-4-7-7-7-7-7-7----------------------------| 

Verso 2 continuação: Guitarra 1 
e|---------------------------------------------------------------------------| 
B|---------------------------------------------------------------------------| 
G|6-6-6-6-6-6-9-9-9-9-9-9----------------------------------------------------| 
D|6-6-6-6-6-6-9-9-9-9-9-9-7-7-7-7-7-7-9-9-9-9-9-9----------------------------| 
A|4-4-4-4-4-4-7-7-7-7-7-7-7-7-7-7-7-7-9-9-9-9-9-9----------------------------| 
E|------------------------5-5-5-5-5-5-7-7-7-7-7-7----------------------------| 

Verso 2 continuação: Guitarra 1 
e|--------------------| 
B|--------------------| 
G|6~--6~--------------| 
D|6~--6~--------------| 
A|4~--4~--12/---------| 
E|--------------------| 

Repetir verso 1

Repetir refrão: (comece com deslizando a palheta nas cordas) 

Solo: Guitarra 1 
e|-------------------------------------------| 
B|-------------------------------------------| 
G|6~---4~-------------6~---4~----------------| 
D|6~---4~---2~---7~---6~---4~---2~---7~------| 
A|4~---2~---2~---7~---4~---2~---2~---7~------| 
E|----------0~---5~-------------0~---5~------| 

Solo continuação: Guitarra 1 (2x) 
e|---------------------------------------------------------------------------| 
B|---------------------------------------------------------------------------| 
G|6-6-6-6-6-6-6-6-6-6-6-6-4-4-4-4-4-4-4-4-4-4-4-4----------------------------| 
D|6-6-6-6-6-6-6-6-6-6-6-6-4-4-4-4-4-4-4-4-4-4-4-4-2-2-2-2-2-2-2-2-2-2-2-2----| 
A|4-4-4-4-4-4-4-4-4-4-4-4-2-2-2-2-2-2-2-2-2-2-2-2-2-2-2-2-2-2-2-2-2-2-2-2----| 
E|------------------------------------------------0-0-0-0-0-0-0-0-0-0-0-0----| 
... ... ... ... ... ... ... ... ... ... ... ... 

Solo continuação: Guitarra 1  
e|------------------------|---------------------------------| 
B|------------------------|---------------------------------| 
G|------------------------|----6~---------------------------| 
D|7-7-7-7-7-7-7-7-7-7-7-7-|----6~---------------------------| 
A|7-7-7-7-7-7-7-7-7-7-7-7-|----4~---------------------------| 
E|5-5-5-5-5-5-5-5-5-5-5-5-|---------------------------------| 
... ... ... ... 

Repetir refrão 4x 

Outro: Guitarra 1 
e|---------------------------------------------------------------------------| 
B|---------------------------------------------------------------------------| 
G|9-9-9-11-13-13-13-13-9-9-9-11-13-13-13-13-9-9-9-11-13-13-13-13-16-16-16-16-| 
D|x-x-x--x--x--x--x--x-x-x-x--x--x--x--x--x-x-x-x--x--x--x--x--x--x--x--x--x-| 
A|7-7-7--9-11-11-11-11-7-7-7--9-11-11-11-11-7-7-7--9-11-11-11-11-14-14-14-14-| 
E|---------------------------------------------------------------------------| 

Outro continuação: Guitarra 1 
e|---------------------------------------------------------------------------| 
B|---------------------------------------------------------------------------| 
G|16-16-16-16-14-13-16-14-13-9-9-16-14-13-9-9-16-14-13-9-9-11-11-11-11-11-11-| 
D|-x--x--x--x--x--x--x--x--x-x-x--x--x--x-x-x--x--x--x-x-x--x--x--x--x--x--x-| 
A|14-14-14-14-12-11-14-12-11-7-7-14-12-11-7-7-14-12-11-7-7--9--9--9--9--9--9-| 
E|---------------------------------------------------------------------------| 

Outro continuação: Guitarra 1 
e|--------------------| 
B|--------------------| 
G|13-14-13/11/9~------| 
D|-x--x--x--x-x-------| 
A|11-12-11/-9/7~------| 
E|--------------------| 

Guitarra 2 partes: 
Intro: Guitarra 2 
e|---------------------------------------------------------------------------| 
B|---------------------------------------------------------------------------| 
G|9-8--6-6-6-6-6-6-6-6-6-6-6-6-6-6-6-6-6-6-4-2-2-2-2-2-4---------------------| 
D|x-x--6-6-6-6-6-6-6-6-6-6-6-6-6-6-6-6-6-6-4-2-2-2-2-------------------------| 
A|7-6--4-4-4-4-4-4-4-4-4-4-4-4-4-4-4-4-4-4-2-0-0-0-0-------------------------| 
E|---------------------------------------------------------------------------| 
......... ......... ....... . . 

Intro continuação: Guitarra 2 (3x) 
e|---------------------------------------------------------------------------| 
B|---------------------------------------------------------------------------| 
G|6-6-6-6-6-6-6-6-6-6-6-6-6-6-6-6-6-6-4-2-2-2-2-2-4-4-4-4-4-4----------------| 
D|6-6-6-6-6-6-6-6-6-6-6-6-6-6-6-6-6-6-4-2-2-2-2-2-4-4-4-4-4-4----------------| 
A|4-4-4-4-4-4-4-4-4-4-4-4-4-4-4-4-4-4-2-0-0-0-0-0-2-2-2-2-2-2----------------| 
E|---------------------------------------------------------------------------| 
......... ......... ....... . 

Intro continuação: Guitarra 2 
e|-------------------------------------------------=------| 
B|--------------------------------------------------------| 
G|--------------------9-----------9-9-9-8-8-8-8-----------| 
D|9-9-9-----9-9-9-6-7---9-9-9-----x-x-x-x-x-x-x-----------| 
A|7-7-7-6-7-7-7-7-------7-7-7-6-7-7-7-7-6-6-6-6-----------| 
E|--------------------------------------------------------| 
. . . . . . 

Verso 1: Guitarra 2 "You pull me by the arms..." (Repetir 2º coisa 4x) 
e|-----4-2-0----4-2-0-|--------4---2h4p2---0---------------------------------| 
B|-----------4--------|------2---2-------2-----------------------------------| 
G|-9~-----------------|------------------------------------------------------| 
D|-x------------------|------------------------------------------------------| 
A|-7~-----------------|------------------------------------------------------| 
E|--------------------|------------------------------------------------------| 
. . . 

Verso 1 continuação: Guitarra 2 (Repetir 2º coisa 4x) 
e|-0~--4-2-0---4-2-0--|---------4---2h4p2---0--------------------------------| 
B|-2~--------4--------|-------2---2-------2----------------------------------| 
G|--------------------|------------------------------------------------------| 
D|--------------------|------------------------------------------------------| 
A|--------------------|------------------------------------------------------| 
E|--------------------|------------------------------------------------------| 
. . . 

Verso 1 continuação: Guitarra 2 
e|---------------| 
B|---------------| 
G|---------------| 
D|-7~----9~------| 
A|-7~----9~------| 
E|-5~----7~------| 

Refrão: Guitarra 2 "Lets save the world..." (difícil pra ouvir) (Repetir últimos) 
e|-4-2------| 
B|-----4----| 
G|----------| 
D|----------| 
A|----------| 
E|----------| 

Repetir Intro:  

Verso 2: Guitarra 2 "So spread the word..." (2x) 
e|---------------------------------4-2---------------------------------------| 
B|---------------------------------------------------------------------------| 
G|6-6-6-8-9-9-9-9-9-9-9-9-8-4-4-4--------------------------------------------| 
D|x-x-x-x-x-x-x-x-x-x-x-x-x-x-x-x--------------------------------------------| 
A|4-4-4-6-7-7-7-7-7-7-7-7-6-2-2-2--------------------------------------------| 
E|---------------------------------------------------------------------------| 

Verso 2 continuação: Guitarra 2 "Well to live is to.." 
e|-----4-2-------------------------------------------------------------------| 
B|---------2~----------------------------------------------------------------| 
G|6~-------------------------------------------------------------------------| 
D|x--------------------------------------------------------------------------| 
A|4~-------------------------------------------------------------------------| 
E|---------------------------------------------------------------------------| 

Repetir Verso 1 

Repetir refrão 


Solo: Guitarra 2 
e|---------------------------------------------------------------------------| 
B|---------------------------------------------------------------------------| 
G|13~--11\9-8/9~--9~--9/11-9~--9/11--13~--11\9-8/16-16~--16-14-13/16~--------| 
D|-x----x-x-x-x---x---x--x-x---x--x---x----x-x-x--x--x----x--x--x--x---------| 
A|11~---9\7-6/7~--7~--7/-9-7~--7/-9--11~---9\7-6/14-14~--14-12-11/14~--------| 
E|---------------------------------------------------------------------------| 

Solo continuação: Guitarra 2 
e|---------------------------------------------------------------------------| 
B|---------------------------------------------------------------------------| 
G|9/11-13~--11\9-8-9~--9~---9/11-9~---9/11-13~--11\9-8-9--9~--9/11-9~--------| 
D|x--x--x----x-x-x-x---x----x--x-x----x--x--x----x-x-x-x--x---x--x-x---------| 
A|7/-9-11~---9\7-6-7~--7~---7/-9-7~---7/-9-11~---9\7-6-7--7~--7/-9-7~--------| 
E|---------------------------------------------------------------------------| 

Solo continuação: Guitarra 2  
e|----------------------------| 
B|----------------------------| 
G|----9-----9---9-------------| 
D|--9-----9-------------------| 
A|7-----7-----7---------------| 
E|----------------------------| 

Repetir refrão: (4x) 
Composição de Rufio
Colaboração e revisão:
  • Markinhos
3.137 exibições
    • ½ Tom
    • A
    • Bb
    • B
    • C
    • Db
    • D
    • Eb
    • E
    • F
    • F#
    • G
    • Ab
  • Adicionar à lista

    0 comentários

    Ver todos os comentários

    Conseguiu tocar?

    0 Tocaram 0 Ainda não

    Grave um vídeo tocando Save The World e nos envie!

    00:00 / 00:00
    Outros vídeos desta música
    Repetir Qualidade Automático
    Outros vídeos desta música
    00:00 / 00:00
    Automático

    Cifra Club Pro

    Aproveite o Cifra Club com benefícios exclusivos e sem anúncios
    Cifra Club Pro
    Aproveite o Cifra Club com benefícios exclusivos e sem anúncios
    OK