Cifra Club

Aprenda

Science Fiction

Rufio

Cifra: Principal (violão e guitarra)
tom: A
~ - deixar soar
... - abafado
X - travar instrumento
p - pull off 
h  - hammer on

Guitarra 1 partes:
------------------
Intro: (x4)
e|--------------------------------------------|
B|--2-------5---2--------2--------------------|
G|-----2-1----2---2--2-4---1-2-4-2------------|
D|---4----------------------------------------|
A|--------------------------------------------|
E|--------------------------------------------|

Verso:(x2)
E|-------------------------------------------------|
b|-------------------------------------------------|
g|-------------------------------------------------|
D|-4-4-4-4-4x--4-4-4-4-4x--7-7-7-7-7x--2-2-2-2-2x--|
A|-4-4-4-4-4x--4-4-4-4-4x--7-7-7-7-7x--2-2-2-2-2x--|
E|-2-2-2-2-2x--2-2-2-2-2x--5-5-5-5-5x--0-0-0-0-0x--|

 Verso continuação:(x2)
e|------------------------------------------------------------------------|
b|------------------------------------------------------------------------|
g|-------6------6---6---6-6---6-6-------9------9--------------------------|
D|--4-4----4-4----4---4-4-4-4-4-4---7-7---7-7------9----9-----9-9----9-9--|
A|----------------------------------------------------7-7---7-7-7--7-7-7--|
E|------------------------------------------------------------------------|
    ...    ...    .   .      .      ...   ...    .    .      .     .

Pré-refrão:
e|-----------------------|
b|-----------------------|
g|-----------------------|
D|-7-7--7-7-7--7-7-7-7-7-|
A|-5-5--5-5-5--5-5-5-5-5-|
E|-5-5--5-5-5--5-5-5-5-5-|
        ......

Pré-refrão continuação:
E|-----------------------------------------|
b|--5--------------5---------2---5---------|
g|------2----1----------2-------------2----|
D|----4---4-----4----4----4----4---4----4--|
A|-----------------------------------------|
E|-----------------------------------------|
      .   .     .    .    .    .   .    .

Repetir pré-refrão:(x2)

Fim do pré-refrão:
e|-----------------------------------------------------|
b|-----------------------------------------------------|
g|-------------------------9-9-9-9-9-9-9-9-9-9-9-------|
D|--7-7-7--7-7-7--7-7-7-7--9-9-9-9-9-9-9-9-9-9-9-------|
A|--5-5-5--5-5-5--5-5-5-5--7-7-7-7-7-7-7-7-7-7-7-------|
E|--5-5-5--5-5-5--5-5-5-5------------------------------|
           ......

Refrão: "Don't believe in science fiction..."
e|--------------------------------------------------------------------|
b|--------------------------------------------------------------------|
g|--------------------------------------------------------------------|
D|-7-7-7-7-7-7-7-7--2-2-2-2-2-2-2-2--4-4-4-4-4-4-4-4--7-7-7-7-7-7-7-7-|
A|-7-7-7-7-7-7-7-7--2-2-2-2-2-2-2-2--4-4-4-4-4-4-4-4--5-5-5-5-5-5-5-5-|
E|-5-5-5-5-5-5-5-5--0-0-0-0-0-0-0-0--2-2-2-2-2-2-2-2------------------|

Refrão continuação:
e|-------------------------------------------------------|
b|--5-----------5------------5-----------5------------5--|
g|----2-2-2-2-2----2-2-2-2-4---2-2-2-2-2----2-2-2-2-4----|
D|-------------------------------------------------------|
A|-------------------------------------------------------|
E|-------------------------------------------------------|

Refrão continuação:
e|--------------------------------------------|
b|------------5-------------------------------|
G|--2-2-2-2-2----2-2-2-2-4-4-2---------2-2-2--|
D|-----------------------------2-2-2-2--------|
A|--------------------------------------------|
E|--------------------------------------------|

Interlude:(x2)
e|--12h14p12------12h14p12-----17~--12h14p12------12h14p12-------------|
b|-----------14~-----------14~---------------14~-----------1410/12~---|
g|---------------------------------------------------------------------|
D|---------------------------------------------------------------------|
A|---------------------------------------------------------------------|
E|---------------------------------------------------------------------|

Repetir verso:
Repetir pré-refrão:(x3)
Repetir fim do pré-refrão:
Repetir refrão:

Ponte:(x4)
e|----------------------------|
b|----------------------------|
g|-6-6-6-6-6-6--9-9x--9-9x----|
D|-4-4-4-4-4-4--7-7x--7-7x----|
A|----------------------------|
E|----------------------------|
     .........
 
Ponte continuação:
e|------------------------------------|
b|------------------------------------|
g|------------------------------------|
D|--7-7-7-7-7-7-7-7--9-9-9-9-9-9-9-9--|
A|--7-7-7-7-7-7-7-7--9-9-9-9-9-9-9-9--|
E|--5-5-5-5-5-5-5-5--7-7-7-7-7-7-7-7--|

Fim da ponte:
e|--------------------------------------------|
b|--------------------------------------------|
g|--7-7-7-7-7-7-7-7-7-7-7-9-9-9-9-9-9-9-9-9-9-|
D|--7-7-7-7-7-7-7-7-7-7-7-9-9-9-9-9-9-9-9-9-9-|
A|--5-5-5-5-5-5-5-5-5-5-5-7-7-7-7-7-7-7-7-7-7-|
E|--------------------------------------------|

Repetir fim do refrão:(x2)
Repetir intro:(x4)

Outro:(x2)
e|--------------------------------------------------------------|
b|--------------------------------------------------------------|
g|--------------------------------------------------------------|
D|--7-7-7-7-7-7-7--7-7-7-7-7-7-7--7-7-7-7-7-7-7--6-6-6-6-6-6-6--|
A|--------------------------------------------------------------|
E|--------------------------------------------------------------|
    .............  .............  .............  .............

Guitarra 2 partes:
------------------
Começa com isto:
e|------------------------------------|
b|------------------------------------|
g|------------------------------------|
D|--7-7-7-7-7-7-7--2-2-2-2-2-2-2-2-2--|
A|--7-7-7-7-7-7-7--2-2-2-2-2-2-2-2-2--|
E|--5-5-5-5-5-5-5--0-0-0-0-0-0-0-0-0--|
    .............  .................

Intro:(x3)
e|---------------------------------------------------------------------|
b|---------------------------------------------------------------------|
g|---------------------------------------------------------------------|
D|--4-4-4-4-4-4-4-4-4-4-4-4-4-4-4--7-7-7-7-7-7-7-7--2-2-2-2-2-2-2-2-2--|
A|--4-4-4-4-4-4-4-4-4-4-4-4-4-4-4--7-7-7-7-7-7-7-7--2-2-2-2-2-2-2-2-2--|
E|--2-2-2-2-2-2-2-2-2-2-2-2-2-2-2--5-5-5-5-5-5-5-5--0-0-0-0-0-0-0-0-0--|
    .............................  ...............  .................

Verse:(x2)
E|-------------------------------------------------|
b|-------------------------------------------------|
g|-------------------------------------------------|
D|-4-4-4-4-4x--4-4-4-4-4x--7-7-7-7-7x--2-2-2-2-2x--|
A|-4-4-4-4-4x--4-4-4-4-4x--7-7-7-7-7x--2-2-2-2-2x--|
E|-2-2-2-2-2x--2-2-2-2-2x--5-5-5-5-5x--0-0-0-0-0x--|

Verso continuação:
e|-----------------------------------------------------------------------|
b|--5-2-3-2-0-2--5-2-3-2-0-2--5-2-3-2-5-2-5-2-0-2--5-2-3-2-0-2--5-2-0-2--|
g|-----------------------------------------------------------------------|
D|-----------------------------------------------------------------------|
A|-----------------------------------------------------------------------|
E|-----------------------------------------------------------------------|

Verso continuação:
e|-----------------------------------------------------------------|
b|--5-2-3-2-0-2--5-2-3-2-0-2--5-2-3-2-5-2-5-2-0-2--5-2-3-2-0-2--5--|
g|-----------------------------------------------------------------|
D|-----------------------------------------------------------------|
A|-----------------------------------------------------------------|
E|-----------------------------------------------------------------|

Pré-refrão:(x3)
E|---------------------------------------|
b|---------------------------------------|
g|--11-11--11-11-11--11-11-11-11-11-11x--|
D|--11--x---x--x--x---x--x--x--x--x--x---|
A|---9--9---9--9--9---9--9--9--9--9--9x--|
E|---------------------------------------|
           ........

Pré-refrão continuação:
E|-------------------------------------------------|
b|-------------------------------------------------|
g|--11-11--11-11-11--11-11-11-11-11-11x--13-strum--|
D|--11--x---x--x--x---x--x--x--x--x--x----x-16x----|
A|---9--9---9--9--9---9--9--9--9--9--9x--11--------|
E|-------------------------------------------------|
           ........ 

Refrão:
e|----------------------------------------|
b|----------------------------------------|
g|--6-4-9----9-7-6--------------11-strum--|
D|--x-x-x-7--x-x-x-7--7-9-11-7---x--16x---|
A|--4-2-7-x--7-5-4-x--x-x--x-x---9--------|
E|--------5--------5--5-7--9-5------------|

Refrão continuação:
e|-------------------------------------------|
b|-------------------------------------------|
g|--4-6-9----9-7-6-----------------14-strum--|
D|--x-x-x-7--x-x-x-7--7-9-11-7--9---x--12x---|
A|--2-4-7-x--7-5-4-x--x-x--x-x--x--12--------|
E|--------5--------5--5-7--9-5--7------------|

Interlude:
e|--------------------------------------------------------------------|
b|-12h14p12------12h14p12-----17~--12h14p12------12h14p12-------------|
g|-----------14~-----------14~---------------14~-----------14~9/11~--|
D|--------------------------------------------------------------------|
A|--------------------------------------------------------------------|
E|--------------------------------------------------------------------|
 
Repetir verso:
Repetir pré-refrão:(x3)
Repetir refrão:

Ponte parte 1:
e|---------------------------------------------|
b|---------------------------------------------|
g|--11-11-11-11-11-----------------------------|
D|--11-11-11-11-11--11-11-11--11-11-12--12-12--|
A|---9--9--9--9--9--11-11-11--11-11-12--12-12--|
E|-------------------9--9--9---9--9-10--10-10--|
                     .....     .....     .....
 
Ponte continuação:
E|-----------------------------------------|
b|-----------------------------------------|
g|---------------9----------------9--------|
D|-----------------11-9--9----9-9----------|
A|--12--11-12-12-----------12-------12-11--|
E|-----------------------------------------|
    ..     .....      .  ........   .....

Repetir ponte parte 1:
Ponte continuação:
e|----------------------------------------------|
b|----------------------------------------------|
g|---------------9--------9------------9--------|
D|-----------------11--9----------9-------------|
A|--12--11-12-12------------12-12---12---12-12--|
E|----------------------------------------------|
                       .    .....   ..   .....

Ponte continuação:
e|--------------------------------------------|
b|--------------------------------------------|
g|--11--9-------------------------------------|
D|--------12-11-9--------11--11-11-12--12-12--|
A|----------------12-11--11--11-11-12--12-12--|
E|------------------------9---9--9-10--10-10--|
                              ....     .....
Ponte continuação:
e|---------------------------------------------|
b|---------------------------------------------|
g|---------------9--------------------9--------|
D|-----------------11-9--9-------9-------------|
A|--12--11-12-12-----------12-12---12---12-12--|
E|---------------------------------------------|
                           .....   ..   .....

Repetir Ponte parte 1:

Ponte continuação:
e|---------------------------------------------|
b|---------------------------------------------|
g|---------------9--------------------9--------|
D|-----------------11-9--9-------9-------------|
A|--12--11-12-12-----------12-12---12---12-12--|
E|---------------------------------------------|

                           .....   ..   .....

Fim da ponte:
e|------------------------------------------------------------------------------------|
b|------------------------------------------------------------------------------------|
G|--11--11-11--11-11-11--11--11-11--11-11-11-13--13-13-13-13-13-14-14-14-14-14-14-14--|
D|---x---x--x---x--x--x---x---x--x---x--x--x--x---x--x--x--x--x--x--x--x--x--x--x--x--|
A|---9---9--9---9--9--9---9---9--9---9--9--9-11--11-11-11-11-11-12-12-12-12-12-12-12--|
E|-------------------------------------------------------------------------------
Composição de Jon Berry / Rufio / Scott Sellers
Colaboração e revisão:
  • Markinhos
3.283 exibições
    • ½ Tom
    • A
    • Bb
    • B
    • C
    • Db
    • D
    • Eb
    • E
    • F
    • F#
    • G
    • Ab
  • Adicionar à lista

    0 comentários

    Ver todos os comentários

    Conseguiu tocar?

    0 Tocaram 0 Ainda não

    Grave um vídeo tocando Science Fiction e nos envie!

    00:00 / 00:00
    Outros vídeos desta música
    Repetir Qualidade Automático
    Outros vídeos desta música
    00:00 / 00:00
    Automático

    Cifra Club Pro

    Aproveite o Cifra Club com benefícios exclusivos e sem anúncios
    Cifra Club Pro
    Aproveite o Cifra Club com benefícios exclusivos e sem anúncios
    OK