Cifra Club

Aprenda

She cries

Rufio

Cifra: Principal (violão e guitarra)
Tom: A
... - abafado
~ - deixar soar
h - hammer on
/ - deslizar
2x
2x - travar instrumento
0x


Baixo Intro:

Guitarra 1 partes:
-----------------
Intro:  (limpo)
e|--9--9--9--9--9--9--9--9--9--9--9--9--9--9--9--9--9--9--9--9--9--9--9--9---|
B|-10-10-10-10-10-10-10-10-10-10-10-10-10-10-10-10-10-10-10-10-10-10-10-10---|
G|--9--9--9--9--9--9--9--9--9--9--9--9--9--9--9--9--9--9--9--9--9--9--9--9---|
D|---------------------------------------------------------------------------|
A|---------------------------------------------------------------------------|
E|---------------------------------------------------------------------------|

Verso:            Come again she says
                  Headed for the longest road
                  One too many times
                  He's beaten you down to the bone

Pré-refrão:(4x)  "So you sail away..."  
E|---------------------------------------------------------------------------|
B|---------------------------------------------------------------------------|
G|---------------------------------------------------------------------------|
D|--------9-----9---------7-----7---------7-7-7-7---------7-7-7-7------------|
A|7-7-7-7---7-7---9-9-9-9---9-9---5-5-5-5---------5-5-5-5--------------------|
E|---------------------------------------------------------------------------|
  .......   ...   .......   ...   .......         .......

Interlude:(2x)
E|---------------------------------------------------------------------------|
B|---------------------------------------------------------------------------|
G|---------------------------------------------------------------------------|
D|7-7-7-7-7-7-7-7-7-7-4-4-4-4-4-2-2-2-2-2------------------------------------|
A|7-7-7-7-7-5-5-5-5-5-4-4-4-4-4-2-2-2-2-2------------------------------------|
E|5-5-5-5-5-5-5-5-5-5-2-2-2-2-2-0-0-0-0-0------------------------------------|

Segundo verso:  
E|---------------------------------------------------------------------------|
B|---------------------------------------------------------------------------|
G|---------------------------------------------------------------------------|
D|---7~-------7-7-7-7-7-7-7-7-7-7-7-7-7-7-7-7-4-4-4-4-4-4-4-4-2-2-2-2-2-2-2-2|
A|---7~-------7-7-7-7-7-7-7-7-5-5-5-5-5-5-5-5-4-4-4-4-4-4-4-4-2-2-2-2-2-2-2-2|
E|---5~-------5-5-5-5-5-5-5-5-5-5-5-5-5-5-5-5-2-2-2-2-2-2-2-2-0-0-0-0-0-0-0-0|
              ...............................................................

Repetir pré-refrão:



Refrão:  "Ohhhh, she cries..."
E|---------------------------------------------------------------------------|
B|---------------------------------------------------------------------------|
G|-----------------------------------------------------------------7-6h7-6~--|
D|7-7-7-7-7-7-7-7-7-7-7-7-7-7-7-7-7-7-7-4-4--4-4-4-4--2-2--2-2-2-2-7---------|
A|7-7-7-7-7-7-7-7-5-5-5-5-5-5-5-5-5-5-5-4-4--4-4-4-4--2-2--2-2-2-2-5---------|
E|5-5-5-5-5-5-5-5-5-5-5-5-5-5-5-5-5-5-5-2-2--2-2-2-2--0-0--0-0-0-0-----------|
                  .....   .....   ...

Refrão continução:
E|---------------------------------------------------------------------------|
B|---------------------------------------------------------------------------|
G|6h7-6----------------------------------------------------------------------|
D|------7-7-7-7-7-7-7-7-7-7-7-7-7-7-7-7-7-7-7-4-4--4-4-4-4--2-2--2-2-2-2-----|
A|------7-7-7-7-7-7-7-7-5-5-5-5-5-5-5-5-5-5-5-4-4--4-4-4-4--2-2--2-2-2-2-----|
E|------5-5-5-5-5-5-5-5-5-5-5-5-5-5-5-5-5-5-5-2-2--2-2-2-2--0-0--0-0-0-0-----|
                        .....   .....   ...

Refrão continuação:
E|---------------------------------------------------------------------------|
B|---------------------------------------------------------------------------|
G|-7-6h7-6~------------------------------------------------------------------|
D|-7-------------------------------------------------------------------------|
A|-5-------------------------------------------------------------------------|
E|---------------------------------------------------------------------------|

Próxima parte:(2x)  "See this is real..."  
E|---------------------------------------------------------------------------|
B|---------------------------------------------------------------------------|
G|---------------------------------------------------------------------------|
D|---------------------------------------------------------------------------|
A|------------------------------------------------5-5-5-5-5-5-5-5------------|
E|5-5-5-5-5-5-5-5-4-4-4-4-4-4-4-4-5-5-5-5-5-5-5-5----------------------------|
  PM.............................................................

Próxima parte continuação:
E|---------------------------------------------------------------------------|
B|---------------------------------------------------------------------------|
G|---------------------------------------------------------------------------|
D|----------------------------------------------------2-------2--------------|
A|----7-------7-------7-------7-------7-------7---5-5---5-5-5---5------------|
E|5-5---5-5-5---5-4-4---4-4-4---4-5-5---5-5-5---5----------------------------|
  ...   .....   .....   .....   .....   .....   .....   .....   .

Próxima parte continuação:
E|---------------------------------------------------------------------------|
B|---------------------------------------------------------------------------|
G|---------------------------------------------------------------------------|
D|------------------------------------------------7-7-7-7-7-7-7-7------------|
A|----7-------7-------7-------7-------7-------7---5-5-5-5-5-5-5-5------------|
E|5-5---5-5-5---5-4-4---4-4-4---4-5-5---5-5-5---5-5-5-5-5-5-5-5-5------------|
  ...   .....   .....   .....   .....   .....   .

Pré-refrão:(2x)  "So you sail away..."  
E|---------------------------------------------------------------------------|
B|---------------------------------------------------------------------------|
G|---------------------------------------------------------------------------|
D|2-2-2-2-2-2-4-4-4-4-4-4-7-7-7-7-7-7-7-7-7-7-7-7----------------------------|
A|2-2-2-2-2-2-4-4-4-4-4-4-5-5-5-5-5-5-5-5-5-5-5-5----------------------------|
E|0-0-0-0-0-0-2-2-2-2-2-2-5-5-5-5-5-5-5-5-5-5-5-5----------------------------|

Pré-refrão continuação:
E|---------------------------------------------------------------------------|
B|---------------------------------------------------------------------------|
G|--------9-----9---------9-----9---------9-9-9-9---------9-9-9-9------------|
D|----------------------------------------7-7-7-7---------7-7-7-7------------|
A|7-7-7-7---7-7---9-9-9-9---9-9---5-5-5-5---------5-5-5-5--------------------|
E|---------------------------------------------------------------------------|
  PM.....   ...   .......   ...   .......         .......

Pré refrão continuação:
E|---------------------------------------------------------------------------|
B|---------------------------------------------------------------------------|
G|---------------------------------------------------------------------------|
D|2-2-2-2-2-2-4-4-4-4-4-4-7-7-7-7-7-7-7-7-7-7-7-7-7-7x-----------------------|
A|2-2-2-2-2-2-4-4-4-4-4-4-5-5-5-5-5-5-5-5-5-5-5-5-5-5x-----------------------|
E|0-0-0-0-0-0-2-2-2-2-2-2-5-5-5-5-5-5-5-5-5-5-5-5-5-5x-----------------------|

Repetir refrão:

Fim do refrão:
E|---------------------------------------------------------------------------|
B|---------------------------------------------------------------------------|
G|---------------------------------------------------------------------------|
D|-7--7-7--7~----------------------------------------------------------------|
A|-5--5-5--5~----------------------------------------------------------------|
E|-5--5-5--5~----------------------------------------------------------------|

Segundo interlude:(2x)
E|---------------------------------------------------------------------------|
B|---------------------------------------------------------------------------|
G|---------------------------------------------------------------------------|
D|---------------------------------------------------------------------------|
A|--------------------------------5-5-5-5-5-5-5-5-5-5-5-5-5-5-5-5------------|
E|2-2-2-2-2-2-2-2-0-0-0-0-0-0-0-0--------------------------------------------|
  PM.............................................................

Segundo interlude continuação:
e|9----9----9----9----7---7---7---7---9----9----9----9----9----9----9----9---|
B|--10---10---10---10---9---9---9---9---10---10---10---10---10---10---10---10|
G|---------------------------------------------------------------------------|
D|---------------------------------------------------------------------------|
A|---------------------------------------------------------------------------|
E|---------------------------------------------------------------------------|
  PM.........................................................................

Segundo interlude continuação:
e|9----9----9----9----10----10----10----10----9----9----9----9----12-12-12-12|
B|--10---10---10---10----10----10----10----10---10---10---10---10------------|
G|---------------------------------------------------------------------------|
D|---------------------------------------------------------------------------|
A|---------------------------------------------------------------------------|
E|---------------------------------------------------------------------------|
  PM.............................................................

Segundo interlude continuação:
e|12-12-12-12----------------------------------------------------------------|
B|---------------------------------------------------------------------------|
G|---------------------------------------------------------------------------|
D|---------------------------------------------------------------------------|
A|---------------------------------------------------------------------------|
E|---------------------------------------------------------------------------|

Repetir refrão: (Com uma pequena diferença)

Fim:
E|---------------------------------------------------------------------------|
B|---------------------------------------------------------------------------|
G|---------------------------------------------------------------------------|
D|2-2-2-2-2x--4x-------------------------------------------------------------|
A|2-2-2-2-2x--4x-------------------------------------------------------------|
E|0-0-0-0-0x--2x-------------------------------------------------------------|


Guitarra 2 partes:
------------------
Intro:(6x)
E|---------------------------------------------------------------------------|
B|---------------------------------------------------------------------------|
G|----6-----6-----6---7-6----------------------------------------------------|
D|7-7---7-7---7-7---7--------------------------------------------------------|
A|---------------------------------------------------------------------------|
E|---------------------------------------------------------------------------|

Verso:  "Come again she says..."  
E|---------------------------------------------------------------------------|
B|---------------------------------------------------------------------------|
G|----6-----6-----6---7-6----------------------------------------------------|
D|7-7---7-7---7-7---7--------------------------------------------------------|
A|---------------------------------------------------------------------------|
E|---------------------------------------------------------------------------|

Pré-refrão:(2x)  "So you sail away..." 
E|---------------------------------------------------------------------------|
B|---------------------------------------------------------------------------|
G|----6-----6-----6---7-6----------------------------------------------------|
D|7-7---7-7---7-7---7--------------------------------------------------------|
A|---------------------------------------------------------------------------|
E|---------------------------------------------------------------------------|

Pré-refrão continuação:(3x)  "So you sail away..."  
E|---------------------------------------------------------------------------|
B|---------------------------------------------------------------------------|
G|--------9-----9---------9-----9---------9-9-9-9---------9-9-9-9------------|
D|7-7-7-7---7-7---7-7-7-7---7-7---7-7-7-7---------7-7-7-7--------------------|
A|---------------------------------------------------------------------------|
E|---------------------------------------------------------------------------|
  .......   ...   .......   ...   .......         .......

Interlude:  (apenas fique tocando isto)
e|--9--9--9------------------------------------------------------------------|
B|-10-10-10------------------------------------------------------------------|
G|--9--9--9------------------------------------------------------------------|
D|---------------------------------------------------------------------------|
A|---------------------------------------------------------------------------|
E|---------------------------------------------------------------------------|

Repetir verso:

Repetir pré-refrão:


Refrão:(2x)  "Ohhhhh, she cries..."  
E|---------------------------------------------------------------------------|
B|---------------------------------------------------------------------------|
G|9-9-9-9-9-9-9-9-7-7-7-7-7-7-7-7-7-7-7-11-11--11-11-11-11--13-13--13-13-13--|
D|x-x-x-x-x-x-x-x-x-x-x-x-x-x-x-x-x-x-x--x--x---x--x--x--x---x--x---x--x--x--|
A|7-7-7-7-7-7-7-7-5-5-5-5-5-5-5-5-5-5-5--9--9---9--9--9--9--11-11--11-11-11--|
E|---------------------------------------------------------------------------|
                  .....   .....   ...

Refrão continuação:
E|---------------------------------------------------------------------------|
B|---------------------------------------------------------------------------|
G|14~--------6h7-6-7/9-------------------------------------------------------|
D|-x---7h9-7-----------------------------------------------------------------|
A|12~------------------------------------------------------------------------|
E|---------------------------------------------------------------------------|

Próxima parte:(4x)  "See this is real..."  
E|---------------------------------------------------------------------------|
B|---------------------------------------------------------------------------|
G|---------------------------------------------------------------------------|
D|7-7-7-7-7-7-7-7-6-6-6-6-6-6-6-6-7-7-7-7-7-7-7-7-7-7-7-7-7-7-7-7------------|
A|---------------------------------------------------------------------------|
E|---------------------------------------------------------------------------|
  ...............................................................

Fim da próxima parte:
E|---------------------------------------------------------------------------|
B|---------------------------------------------------------------------------|
G|9-7-6---7-6---6------------------------------------------------------------|
D|------7-----9--------------------------------------------------------------|
A|---------------------------------------------------------------------------|
E|---------------------------------------------------------------------------|

Pré-refrão:  "Sail away..."
E|---------------------------------------------------------------------------|
B|---------------------------------------------------------------------------|
G|9-9-9-9-9-9-11-11-11-11-11-11-7-7-7-7-7-7-7-7-7-7-7-7-9-9-9-9-9-9-11-11-11-|
D|x-x-x-x-x-x--x--x--x--x--x--x-x-x-x-x-x-x-x-x-x-x-x-x-x-x-x-x-x-x--x--x--x-|
A|7-7-7-7-7-7--9--9--9--9--9--9-5-5-5-5-5-5-5-5-5-5-5-5-7-7-7-7-7-7--9--9--9-|
E|---------------------------------------------------------------------------|

Pré-refrão continuação:
E|---------------------------------------------------------------------------|
B|---------------------------------------------------------------------------|
G|11-11-11-7-7-7-7-7-7-7-7-7-7-7-7---------9-----9---------9-----9-----------|
D|-x--x--x-x-x-x-x-x-x-x-x-x-x-x-x-7-7-7-7---7-7---7-7-7-7---7-7---7-7-7-7---|
A|-9--9--9-5-5-5-5-5-5-5-5-5-5-5-5-------------------------------------------|
E|---------------------------------------------------------------------------|
                                   .......   ...   .......   ...   .......

Pré-refrão continuação:
E|---------------------------------------------------------------------------|
B|---------------------------------------------------------------------------|
G|9-9-9-9---------9-9-9-9-9-9-9-9-9-9-11-11-11-11-11-11-7-7-7-7-7-7-7-7-7-7-7|
D|--------7-7-7-7---------x-x-x-x-x-x--x--x--x--x--x--x-x-x-x-x-x-x-x-x-x-x-x|
A|------------------------7-7-7-7-7-7--9--9--9--9--9--9-5-5-5-5-5-5-5-5-5-5-5|
E|---------------------------------------------------------------------------|
          .......

Repetir refrão:

Segundo interlude:(4x)
E|---------------------------------------------------------------------------|
B|---------------------------------------------------------------------------|
G|---------------------------------------------------------------------------|
D|7-7-7-7-7-7-7-7-6-6-6-6-6-6-6-6-7-7-7-7-7-7-7-7-7-7-7-7-7-7-7-7------------|
A|---------------------------------------------------------------------------|
E|---------------------------------------------------------------------------|
  PM.............................................................

Segundo interlude continuação:
E|---------------------------------------------------------------------------|
B|---------------------------------------------------------------------------|
G|9-7-6---7-6---6------------------------------------------------------------|
D|------7-----9--------------------------------------------------------------|
A|---------------------------------------------------------------------------|
E|---------------------------------------------------------------------------|

Repetir refrão:  (instrumento diferente)

Fim:
E|---------------------------------------------------------------------------|
B|---------------------------------------------------------------------------|
G|---------------------------------------------------------------------------|
D|2-2-2-2-2x--4x-------------------------------------------------------------|
A|2-2-2-2-2x--4x-------------------------------------------------------------|
E|0-0-0-0-0x--2x-------------------------------------------------------------|
Composição de Rufio
Colaboração e revisão:
  • Markinhos
4.649 exibições
    • ½ Tom
    • A
    • Bb
    • B
    • C
    • Db
    • D
    • Eb
    • E
    • F
    • F#
    • G
    • Ab
  • Adicionar à lista

    0 comentários

    Mostrar mais comentários

    Conseguiu tocar?

    0 Tocaram 0 Ainda não

    Grave um vídeo tocando She cries e mande pra gente!

    00:00 / 00:00
    outros vídeos desta música
    repetir qualidade Automático
    Outros vídeos desta música
    00:00 / 00:00
    Automático

    Cifra Club Pro

    Aproveite o Cifra Club com benefícios exclusivos e sem anúncios
    7 dias grátis
    Cifra Club Pro
    Aproveite o Cifra Club com benefícios exclusivos e sem anúncios
    7 dias grátis
    OK