Cifra Club

Aprenda

Still

Rufio

Cifra: Principal (violão e guitarra)
tom: A
~ - deixar o som correndo
PM - abafado
p - pull off 

Intro:Guitarra 1
e|---------------------------------------------------------------------------| 
B|---------------------------------------------------------------------------| 
G|------------11~--11-13-14--16~---------------------------------------------| 
D|7~-2-2--2~---x----x--x--x---x----------------------------------------------| 
A|7~-2-2--2~---9~---9-11-12--14~---------------------------------------------| 
E|5~-0-0--0~-----------------------------------------------------------------| 
PM. 

Intro continuação:Guitarra 1 (2x) 
e|---------------------------------------------------------------------------| 
B|---------------------------------------------------------------------------| 
G|--------------------------------7-7-7-7-7-7-7-7-7-7-7-7-7-7-7-7------------| 
D|4-4-4-4-4-4-4-4-2-2-2-2-2-2-2-2-7-7-7-7-7-7-7-7-7-7-7-7-7-7-7-7------------| 
A|4-4-4-4-4-4-4-4-2-2-2-2-2-2-2-2-5-5-5-5-5-5-5-5-5-5-5-5-5-5-5-5------------| 
E|2-2-2-2-2-2-2-2-0-0-0-0-0-0-0-0--------------------------------------------| 

Intro: Guitarra 2 
e|---------------------------------------------------------------------------| 
B|---------------------------------------------------------------------------| 
G|----------7~---7~----------------------------------------------------------| 
D|7~---2~---7~---7~----------------------------------------------------------| 
A|7~---2~---5~---5~----------------------------------------------------------| 
E|5~---0~--------------------------------------------------------------------| 

Intro Continuação:Guitarra 2 
e|---------------------------------------------------------------------------| 
B|---------------------------------------------------------------------------| 
G|------------6-6-9---------6-6-------------6-6-9---------6-6-------------6-6| 
D|----7-7-9-9-------7-7-9-9---------7-7-9-9-------7-7-9-9---------7-7-9-9----| 
A|0-0---------------------------7-7---------------------------5-5------------| 
E|---------------------------------------------------------------------------| 

Intro Continuação:Guitarra 2 Fim da Intro:Guitarra 2 
e|----------------------------|----------------------------------------------| 
B|----------------------------|----------------------------------------------| 
G|------------6-6-9-----6h7-6-|------------6-6-9~----------------------------| 
D|----7-7-9-9-------7-7-------|----7-7-9-9-----------------------------------| 
A|5-5-------------------------|5-5-------------------------------------------| 
E|----------------------------|----------------------------------------------| 

Verso:Guitarra 1 (2x) 
e|---------------------------------------------------------------------------| 
B|---------------------------------------------------------------------------| 
G|------------------------7-7-7-9-9-9-11-11-11-14-14-14----------------------| 
D|4-4-4-4-4-4-2-2-2-2-2-2-x-x-x-x-x-x--x--x--x--x--x--x-4-4-4-4-4-4-2-2-2-2-2| 
A|4-4-4-4-4-4-2-2-2-2-2-2-5-5-5-7-7-7--9--9--9-12-12-12-4-4-4-4-4-4-2-2-2-2-2| 
E|2-2-2-2-2-2-0-0-0-0-0-0-------------------------------2-2-2-2-2-2-0-0-0-0-0| 

Verso continuação:Guitarra 1 
e|---------------------------------------------------------------------------| 
B|---------------------------------------------------------------------------| 
G|7-7-7-7-7-7-7-7-7-7--------------------------------------------------------| 
D|7-7-7-7-7-7-7-7-7-7--------------------------------------------------------| 
A|5-5-5-5-5-5-5-5-5-5--------------------------------------------------------| 
E|---------------------------------------------------------------------------| 
PM................. 

Verso:Guitarra 2 (2x) 
e|---------------------------------------------------------------------------| 
B|-------5-------5---------------------------5-------5-----------------------| 
G|-----------------------6---------6-------------------------6---------6-----| 
D|-------------------------7---------7-------------------------7---------7---| 
A|7-7-7----7-7-7---5-5-5-----5-5-5-----7-7-7---7-7-7---5-5-5-----5-5-5-------| 
E|---------------------------------------------------------------------------| 
PM... PM... PM....................... PM... PM................. 

Pré-Refrão:Guitarra 1 
e|---------------------------------------------------------------------------| 
B|---------------------------------------------------------------------------| 
G|7-7-7-7-7-6-6-6-6-6-6-6-6-6-6-----------7-7-7-7-7-6-6-6-6-6-6-6-6-6-6------| 
D|x-x-x-x-x-x-x-x-x-x-x-x-x-x-x-7-7-7-7-7-x-x-x-x-x-x-x-x-x-x-x-x-x-x-x-7-7-7| 
A|5-5-5-5-5-4-4-4-4-4-4-4-4-4-4-x-x-x-x-x-5-5-5-5-5-4-4-4-4-4-4-4-4-4-4-x-x-x| 
E|------------------------------5-5-5-5-5-------------------------------5-5-5| 

Pré-Refrão continuação:Guitarra 1 
e|---------------------------------------------------------------------------| 
B|---------------------------------------------------------------------------| 
G|7-7-7-7-7-7-9-9-9-9-9-9-11-11-11-11-11-11-9-9-9-9-9-9-7~--9-7-6-4~-6-4-----| 
D|x-x-x-x-x-x-x-x-x-x-x-x--x--x--x--x--x--x-x-x-x-x-x-x-x---x-x-x-x--x-x-----| 
A|5-5-5-5-5-5-7-7-7-7-7-7--9--9--9--9--9--9-7-7-7-7-7-7-5~--7-5-4-2~-4-2-----| 
E|---------------------------------------------------------------------------| 

Pré-Refrão:Guitarra 2 
e|---------------------------------------------------------------------------| 
B|---------------------------------------------------------------------------| 
G|11-11-11-11-11-11-13-13-13-13-13-13-9-9-9-9-9-9-9-9-9-9-9-9-11-11-11-11-11-| 
D|-x--x--x--x--x--x--x--x--x--x--x--x-x-x-x-x-x-x-x-x-x-x-x-x--x--x--x--x--x-| 
A|-9--9--9--9--9--9-11-11-11-11-11-11-7-7-7-7-7-7-7-7-7-7-7-7--9--9--9--9--9-| 
E|---------------------------------------------------------------------------| 

Pré-Refrão continuação:Guitarra 2 
e|---------------------------------------------------------------------------| 
B|---------------------------------------------------------------------------| 
G|13-13-13-13-13-13-9-9-9-9-9-9-9-9-9-9-9-9-11-11-11-11-11-11-13-13-13-13-13-| 
D|-x--x--x--x--x--x-x-x-x-x-x-x-x-x-x-x-x-x--x--x--x--x--x--x--x--x--x--x--x-| 
A|11-11-11-11-11-11-7-7-7-7-7-7-7-7-7-7-7-7--9--9--9--9--9--9-11-11-11-11-11-| 
E|---------------------------------------------------------------------------| 

Pré-Refrão continuação:Guitarra 2 
e|---------------------------------------------------------------------------| 
B|---------------------------------------------------------------------------| 
G|9-9-9-9-9-9-9-9-9-9-9-9-11-11-11-11-11-11-11-11-11-11-9-9-9-9-9-9-9-9-9-9--| 
D|x-x-x-x-x-x-x-x-x-x-x-x--x--x--x--x--x--x--x--x--x--x-x-x-x-x-x-x-x-x-x-x--| 
A|7-7-7-7-7-7-7-7-7-7-7-7--9--9--9--9--9--9--9--9--9--9-7-7-7-7-7-7-7-7-7-7--| 
E|---------------------------------------------------------------------------| 

Refrão:Guitarra 1 
e|---------------------------------------------------------------------------| 
B|---------------------------------------------------------------------------| 
G|----------------7-7-7-7-7-7-7-7--------------------------------------------| 
D|7-7-7-7-7-7-7-7-7-7-7-7-7-7-7-7-7-7-7-7-7-7-7-7-----7-----7---7-----7-----7| 
A|7-7-7-7-7-7-7-7-5-5-5-5-5-5-5-5-7-7-7-7-7-7-7-7-5-5---5-5---5---7-7---7-7--| 
E|5-5-5-5-5-5-5-5-----------------5-5-5-5-5-5-5-5----------------------------| 
PM. PM. PM PM. PM. 

Refrão continuação: Guitar 1 
e|---------------------------------------------------------------------------| 
B|---------------------------------------------------------------------------| 
G|----------------------------7-7-7-7-7-7-7-7-7-7-7-7------------------------| 
D|--7-4-4-4-4-4-4-4-4-4-4-4-4-7-7-7-7-7-7-7-7-7-7-7-7-4-4-4-4-4-4-4-4-4-4-4-4| 
A|7---4-4-4-4-4-4-4-4-4-4-4-4-5-5-5-5-5-5-5-5-5-5-5-5-4-4-4-4-4-4-4-4-4-4-4-4| 
E|----2-2-2-2-2-2-2-2-2-2-2-2-------------------------2-2-2-2-2-2-2-2-2-2-2-2| 
PM PM. PM. PM. PM. PM. PM. PM. PM. PM. PM. PM. PM. 

Refrão continuação:Guitarra 1 
e|---------------------------------------------------------------------------| 
B|---------------------------------------------------------------------------| 
G|7~--9~---------------------------------------------------------------------| 
D|x---x----------------------------------------------------------------------| 
A|5~--7~---------------------------------------------------------------------| 
E|---------------------------------------------------------------------------| 

Refrão:Guitarra 2 
e|---------------------------------------------------------------------------| 
B|---------------------------------------------------------------------------| 
G|6-6-6-6-6-6-6-6-11-11-11-11-11-11-11-11-6-6-6-6-6-6-6-6-11-11-11-11-11-11--| 
D|x-x-x-x-x-x-x-x--x--x--x--x--x--x--x--x-x-x-x-x-x-x-x-x--x--x--x--x--x--x--| 
A|4-4-4-4-4-4-4-4--9--9--9--9--9--9--9--9-4-4-4-4-4-4-4-4--9--9--9--9--9--9--| 
E|---------------------------------------------------------------------------| 

Refrão continuação:Guitarra 2 
e|9----10p9----9----10p9----9----10p9----9----10p9----9----10p9--------------| 
B|--10------10---10------10---10------10---10------10---10------10-----------| 
G|------------------------------------------------------------------7--9~----| 
D|------------------------------------------------------------------x--x-----| 
A|------------------------------------------------------------------5--7~----| 
E|---------------------------------------------------------------------------| 

Repetir intro continuação

Repetir verso 

Repetir pré-refrão 

Repetir refrão

Verso 2:Guitarra 1 
e|---------------------------------------------------------------------------| 
B|---------------------------------------------------------------------------| 
G|---------------------------------------------------------------------------| 
D|----7-7-7-7-7-7-2-2-2-2-2-----7-7-7-7-7-7-2-2-2-2-2-----7-7-7-7-7-7-2-2-2-2| 
A|------7-7-7-7-7-2-2-2-2-2-------7-7-7-7-7-2-2-2-2-2-------7-7-7-7-7-2-2-2-2| 
E|4/5---5-5-5-5-5-0-0-0-0-0-4/5---5-5-5-5-5-0-0-0-0-0-4/5---5-5-5-5-5-0-0-0-0| 
PM. PM. PM. 

Verso 2 continuação:Guitarra 1 
e|---------------------------------------------------------------------------| 
B|---------------------------------------------------------------------------| 
G|---------------------------------------------------------------------------| 
D|----7-7-7-7-7-7-7-7-7-7-7-2-2-2-2-2----------------------------------------| 
A|------7-7-7-7-7-7-7-7-7-7-2-2-2-2-2----------------------------------------| 
E|4-5---5-5-5-5-5-5-5-5-5-5-0-0-0-0-0-deslizar-------------------------------| 

Verso 2:Guitarra 2 
e|---------------------------------------------------------------------------| 
B|10-9---------------------------------10-9----------------------------------| 
G|-----9-14-14-14-14-14-13-13-13-13-13------9-14-14-14-14-14-13-13-13-13-13--| 
D|--------x--x--x--x--x--x--x--x--x--x---------x--x--x--x--x--x--x--x--x--x--| 
A|-------12-12-12-12-12-11-11-11-11-11--------12-12-12-12-12-11-11-11-11-11--| 
E|---------------------------------------------------------------------------| 

Verso 2 continuação:Guitarra 2 
e|---------------------------------------------------------------------------| 
B|10-9---------------------------------10-9----------------------------------| 
G|-----9-14-14-14-14-14-13-13-13-13-13------9-14-14-14-14-14-14-14-14-14-14--| 
D|--------x--x--x--x--x--x--x--x--x--x---------x--x--x--x--x--x--x--x--x--x--| 
A|-------12-12-12-12-12-11-11-11-11-11--------12-12-12-12-12-12-12-12-12-12--| 
E|---------------------------------------------------------------------------| 

Verso 2 continuação:Guitarra 2 
e|---------------------------------------------------------------------------| 
B|---------------------------------------------------------------------------| 
G|13-13-13-13----------------------------------------------------------------| 
D|-x--x--x--x----------------------------------------------------------------| 
A|11-11-11-11----------------------------------------------------------------| 
E|------------deslizar-------------------------------------------------------| 

Repetir Refrão

Outro:Guitarra 1 
e|---------------------------------------------------------------------------| 
B|---------------------------------------------------------------------------| 
G|------------------------7-7-7-7-7-7-7-7-7-7-7-7----------------------------| 
D|7-7-7-7-7-7-7-7-7-7-7-7-7-7-7-7-7-7-7-7-7-7-7-7-7-7-7-7-7-7-7-7-7-7-7-7----| 
A|7-7-7-7-7-7-7-7-7-7-7-7-5-5-5-5-5-5-5-5-5-5-5-5-7-7-7-7-7-7-7-7-7-7-7-7----| 
E|5-5-5-5-5-5-5-5-5-5-5-5-------------------------5-5-5-5-5-5-5-5-5-5-5-5----| 
PM. PM. PM. PM. PM. PM. PM. PM. PM. PM. PM. PM. 

Outro continuação:Guitarra 1 
e|---------------------------------------------------------------------------| 
B|---------------------------------------------------------------------------| 
G|7---9----------------------------------------------------------------------| 
D|x---x---7~-----------------------------------------------------------------| 
A|5---7---x------------------------------------------------------------------| 
E|--------5~-----------------------------------------------------------------| 

Outro:Guitarra 2  
e|9----10p9---------------------------------------|--------------------------| 
B|--10------10------------------------------------|--------------------------| 
G|------------------------------------------------|--7---9-------------------| 
D|------------------------------------------------|--x---x---7~--------------| 
A|------------------------------------------------|--5---7---7~--------------| 
E|------------------------------------------------|----------5~--------------| 
Composição de Rufio
Colaboração e revisão:
  • Markinhos
8.062 exibições
    • ½ Tom
    • A
    • Bb
    • B
    • C
    • Db
    • D
    • Eb
    • E
    • F
    • F#
    • G
    • Ab
  • Adicionar à lista

    0 comentários

    Ver todos os comentários

    Conseguiu tocar?

    0 Tocaram 0 Ainda não

    Grave um vídeo tocando Still e nos envie!

    00:00 / 00:00
    Outros vídeos desta música
    Repetir Qualidade Automático
    Outros vídeos desta música
    00:00 / 00:00
    Automático

    Cifra Club Pro

    Aproveite o Cifra Club com benefícios exclusivos e sem anúncios
    Cifra Club Pro
    Aproveite o Cifra Club com benefícios exclusivos e sem anúncios
    OK