Cifra Club

Aprenda

Tears

Rufio

Cifra: Principal (violão e guitarra)
Tom: F
DROP D TUNING!!!
PM - palm mute
h  - hammer on
p  - pull off
/  - slide
x
x  - scratching
x

GUITAR 1'S PARTS:
-----------------

Intro:
e|-------8~---8p6-6--6p5---5-----5-----6------5------------------------------|
B|-----8----8------------6---6-----6-----6------6----------------------------|
G|---7-------------------------5-----5-----5------5--------------------------|
D|-5-------------------------------------------------------------------------|
A|---------------------------------------------------------------------------|
D|---------------------------------------------------------------------------|

Intro Cont'd:
e|-------8~---8p6-6--6p5---5-----5-----6------5~-----------------------------|
B|-----8----8------------6---6-----6-----6-----------------------------------|
G|---7-------------------------5-----5-----5---------------------------------|
D|-5-------------------------------------------------------------------------|
A|---------------------------------------------------------------------------|
D|---------------------------------------------------------------------------|

Intro Cont'd:  (3x)      4th Time:
e|------------------------------|--------------------------------------------|
B|------------------------------|--------------------------------------------|
G|------------------------2h3---|--------------------------------------------|
D|5-x-x-x-x-----0-3/5-3-3-----3-|--5-x-x-x-x-5-----1~------------------------|
A|5-x-x-x-x-5-3-0---------------|--5-x-x-x-x-5-3-0-1~------------------------|
D|5-x-x-x-x-5-3-0---------------|--5-x-x-x-x-5-3-0-1~------------------------|
              ...                              ...

Verse:  Repeat 1st part of Intro
          I sit and hear you sleep
          I don't want to go
          You're there beside me
          But you're so far away

Verse Cont'd:  "I talk to you..."
e|---------------------------------------------------------------------------|
B|------------6-----------------------------------------------6--------------|
G|------7-----------7---7----------------------------------------------------|
D|5-5-5---5-5---5-5---5---------7---7-------7---7-------8-----------8--------|
A|------------------------------------------------6-6-6---6-6---6-6---6-6----|
D|------------------------7-7-7---7---8-8-8---8------------------------------|
  .....   ...   ...   .   .....   .   .....   .   .....   ...   ...   ... 

Verse Cont'd:
e|-------------------------------|
B|-------------------------------|
G|-------------------------------|
D|------8-----7-----8---7--------|
A|8-8-8---8-8---8-8---8----------|
D|-------------------------------|
  PM...   ...   ...   .

Chorus:  Repeat 2nd part of Intro
           Tears are feelings we can say
           Tears mean that you care
           Tears are mixed emotions
           Tears are more than tears

2nd Verse:  "The pouring rain from..."  (Repeat a lot)
e|-----------|
B|----6------|
G|--5---5----|
D|5----------|
A|-----------|
D|-----------|

2nd Verse Cont'd:  Repeat 1st part of Intro
                     I sit and watch you leave
                     My life forever
                     I know you'll be gone so long
                     My last words are nothing

2nd Verse Cont'd:  "And I tell you I care..."  (2x)
e|---------------------------------------------------------------------------|
B|------------------------4-4-4-4-4x-----------------------------------------|
G|------------------------3-3-3-3-3x-----------------------------------------|
D|5-5-5-5-5x--------8-8-8-1-1-1-1-1x--3-3-3-3-3-3----------------------------|
A|5-5-5-5-5x--8-8-8-8-8-8-1-1-1-1-1x--3-3-3-3-3-3----------------------------|
D|5-5-5-5-5x--7-7-7-8-8-8-1-1-1-1-1x--3-3-3-3-3-3----------------------------|

Repeat Chorus

Bridge:  (4x)  "Is the light behind..."
e|---------------------------------------------------------------------------|
B|---------------------------------------------------------------------------|
G|---------------------------------------------------------------------------|
D|---0-0-0-1-1-1-3-3-3-3-3-3-------------------------------------------------|
A|---0-0-0-1-1-1-3-3-3-3-3-3-------------------------------------------------|
D|-/-0-0-0-1-1-1-3-3-3-3-3-3-------------------------------------------------|

Interlude:  (4x)
e|---------------------------------------------------------------------------|
B|---------------------------------------------------------------------------|
G|----10-10-10-10-----10-10-10-10-----10-10-10-10-10-10-8-7------------------|
D|7h8-------------7h8-------------7h8-----------------------8----------------|
A|---------------------------------------------------------------------------|
D|---------------------------------------------------------------------------|

Repeat Chorus

End on:
e|---------|
B|---------|
G|---------|
D|---1~----|
A|---1~----|
D|---1~----|

GUITAR 2'S PARTS:

Intro:
e|---------------------------------------------------------------------------|
B|---------------------------------------------------------------------------|
G|---------10-------------10----------10-------10-----------------10-------10|
D|---12-------12-------12----12----12------8------8---8---8-----8----8---8---|
A|10----10-------10-12----------13-------6---6------6---6---6/8--------8-----|
D|---------------------------------------------------------------------------|

Intro Cont'd:
e|---------------------------------------------------------------------------|
B|---------------------------------------------------------------------------|
G|---------10-------------10----------10-------10-----------------10---10~---|
D|---12-------12-------12----12----12------8------8---8---8-----8----8--7~---|
A|10----10-------10-12----------13-------6---6------6---6---6/8---------8~---|
D|---------------------------------------------------------------------------|

Intro Cont'd:  (3x)                       4th Time:
e|--------------------------------------|------------------------------------|
B|--------------------------------------|------------------------------------|
G|19-x-x-x-x-20-19-19-15-14-14-14/15-10-|--19-x-x-x-x-20-19-19-15~-----------|
D|-x-x-x-x-x--x--x--x--x--x--x--x--x--x-|---x-x-x-x-x--x--x--x--x------------|
A|17-x-x-x-x-18-17-17-13-12-12-12/13--8-|--17-x-x-x-x-18-17-17-13~-----------|
D|--------------------------------------|------------------------------------|

Repeat Clean Intro

2nd Part of Verse:  (Strumming not defined)
e|---------------------------------------------------------------------------|
B|---------------------------------------------------------------------------|
G|---------------------------------------------------------------------------|
D|---------------------------------------------------------------------------|
A|--5---7---8---1---3--------------------------------------------------------|
D|--5---7---8---1---3--------------------------------------------------------|
    .................

Repeat 2nd Part of Intro
Repeat Clean Intro

2nd Verse Cont'd:  "And I tell you I care..."  (2x)
e|---------------------------------------------------------------------------|
B|------------------------4-4-4-4-4x-----------------------------------------|
G|------------------------3-3-3-3-3x-----------------------------------------|
D|5-5-5-5-5x--------8-8-8-1-1-1-1-1x--3-3-3-3-3-3----------------------------|
A|5-5-5-5-5x--8-8-8-8-8-8-1-1-1-1-1x--3-3-3-3-3-3----------------------------|
D|5-5-5-5-5x--7-7-7-8-8-8-1-1-1-1-1x--3-3-3-3-3-3----------------------------|

Bridge & Interlude:  (Repeat lots)
e|---------------------------13----------------------------------------------|
B|11----11-13-11----11----11----11-11----------------------------------------|
G|---10----------10----10----------------------------------------------------|
D|---------------------------------------------------------------------------|
A|---------------------------------------------------------------------------|
D|---------------------------------------------------------------------------|

Repeat Chorus
Composição de Rufio
Colaboração e revisão:
  • ravel oliveira
4.223 exibições
    • ½ Tom
    • A
    • Bb
    • B
    • C
    • Db
    • D
    • Eb
    • E
    • F
    • F#
    • G
    • Ab
  • Adicionar à lista

    0 comentários

    Mostrar mais comentários

    Conseguiu tocar?

    0 Tocaram 0 Ainda não

    Grave um vídeo tocando Tears e mande pra gente!

    00:00 / 00:00
    outros vídeos desta música
    repetir qualidade Automático
    Outros vídeos desta música
    00:00 / 00:00
    Automático

    Cifra Club Pro

    Aproveite o Cifra Club com benefícios exclusivos e sem anúncios
    7 dias grátis
    Cifra Club Pro
    Aproveite o Cifra Club com benefícios exclusivos e sem anúncios
    7 dias grátis
    OK