Cifra Club

Gamhna Gealla

Runrig

Cifra: Principal (violão e guitarra)
Selo Cifra Club: esta cifra foi revisada para atender aos critérios oficiais da nossa Equipe de Qualidade.
tom: Em
E|---------------------------------------------------------------------------|
B|---------------------------------------------------------------------------|
G|----------------------4----------------------------------------------------|
D|-9-7-9--9p7-------9-7-5---9-7-9-----7-5h7p5--------------------------------|
A|-7-5-7-----9p7----7-5-3---7-5-7--7-9-------9-7-----------------------------|
E|--------------10-------------------------------10--------------------------|

E|---------------------------------------------------------------------------|
B|---------------------------------------------------------------------------|
G|----------------------4---------------------------4------------------------|
D|-9-7-9--9p7-------9-7-5---9-7-9-----7-5h7p5-------5------------------------|
A|-7-5-7-----9p7----7-5-3---7-5-7--7-9-------9-7-5--7------------------------|
E|--------------10-----------------------------------------------------------|


[Verse 1]

E|---------------------------------------------------------------------------|
B|---------------------------------------------------------------------------|
G|-4-4--2-4---4-2-4-6--7-----------------------------------------------------|
D|-5-4--4-5---5-4-5-7--9--4-9---5-7-9-7-9------------------------------------|
A|-7-2--5-7---7-5-7-9--10-2-7---3-5-7-5-7------------------------------------|
E|---------------------------------------------------------------------------|


[Verse 2]

E|---------------------------------------------------------------------------|
B|---------------------------------------------------------------------------|
G|-4-4--2-4---4-2-4-6--7-----------------------------------------------------|
D|-5-4--4-5---5-4-5-7--9--4-9---9-7-9-7-9------------------------------------|
A|-7-2--5-7---7-5-7-9--10-2-7---7-5-7-5-7------------------------------------|
E|---------------------------------------------------------------------------|


[Verse 3]

E|---------------------------------------------------------------------------|
B|---------------------------------------------------------------------------|
G|-4-4--2-4---4-2-4-6--7-----------------------------------------------------|
D|-5-4--4-5---5-4-5-7--9--4-9---9-7-9-7-9------------------------------------|
A|-7-2--5-7---7-5-7-9--10-2-7---7-5-7-5-7------------------------------------|
E|---------------------------------------------------------------------------|


[Chorus]

E|---------------------------------------------------------------------------|
B|---------------------------------------------------------------------------|
G|---------------------------------------------------------------------------|
D|-9-7-9---9-7-9---9-7-9---5-7-9---------------------------------------------|
A|-7-5-7---7-5-7---7-5-7---3-5-7---------------------------------------------|
E|---------------------------------------------------------------------------|

[Solo]

E|---------------------------------------------------------------------------|
B|---------------------------------------------------------------------------|
G|-9---7-9---9-7-9--11-11-11-11----4-9-11--5-4-9-7-9-------------------------|
D|-9-9-7-9---9-7-9--11-11-11-11--5-4-9-11--5-4-9-7-9-------------------------|
A|-7-9-5-7---7-5-7---9--9-9--9---5-2-7-9---3-2-7-5-7-------------------------|
E|---7---------------------------3-------------------------------------------|


[Verse 4]

E|---------------------------------------------------------------------------|
B|---------------------------------------------------------------------------|
G|-4-4--2-4---4-2-4-6--7--------4-4------------------------------------------|
D|-5-4--4-5---5-4-5-7--9--4-9---2-4-9-7-9------------------------------------|
A|-7-2--5-7---7-5-7-9--10-2-7---3-2-7-5-7------------------------------------|
E|---------------------------------------------------------------------------|


[Verse 5]

E|---------------------------------------------------------------------------|
B|---------------------------------------------------------------------------|
G|-4-4--2-4---4-2-4-6--7--------4-4------------------------------------------|
D|-5-4--4-5---5-4-5-7--9--4-9---2-4-9-7-9------------------------------------|
A|-7-2--5-7---7-5-7-9--10-2-7---3-2-7-5-7------------------------------------|
E|---------------------------------------------------------------------------|


[Chorus]

E|---------------------------------------------------------------------------|
B|---------------------------------------------------------------------------|
G|---------------------------------------------------------------------------|
D|-9-7-9---9-7-9---9-7-9---5-7-9---------------------------------------------|
A|-7-5-7---7-5-7---7-5-7---3-5-7---------------------------------------------|
E|---------------------------------------------------------------------------|

No guitar the second time the chorus plays.

E|---------------------------------------------------------------------------|
B|---------------------------------------------------------------------------|
G|---------------------------------------------------------------------------|
D|-9-7-9---9-7-9---9-7-9---5-7-9---------------------------------------------|
A|-7-5-7---7-5-7---7-5-7---3-5-7---------------------------------------------|
E|---------------------------------------------------------------------------|


[Outro]

E|---------------------------------------------------------------------------| x6
B|---------------------------------------------------------------------------|
G|----------------------4----------------------------------------------------|
D|-9-7-9--9p7-------9-7-5---9-7-9-----7-5h7p5--------------------------------|
A|-7-5-7-----9p7----7-5-3---7-5-7--7-9-------9-7-----------------------------|
E|--------------10-------------------------------10--------------------------|

After last note, play this chords
E|-----|
B|--0--|
G|--0--|
D|--2--|
A|--3--|
E|-----|
Outros vídeos desta música
      • ½ Tom
      • Am
      • Bbm
      • Bm
      • Cm
      • C#m
      • Dm
      • Ebm
      • Em
      • Fm
      • F#m
      • Gm
      • G#m
    • Adicionar à lista

    Afinação da cifra

    Afinador online

      0 comentários

      Ver todos os comentários

      Entre para o Cifra Club PRO

      Tenha acesso a benefícios exclusivos no App e no Site

      • Chega de anúncios

      • Badges exclusivas

      • Mais recursos no app do Afinador

      • Atendimento Prioritário

      • Aumente seu limite de lista

      • Ajude a produzir mais conteúdo

      Cifra Club Pro

      Aproveite o Cifra Club com benefícios exclusivos e sem anúncios
      Cifra Club Pro
      Aproveite o Cifra Club com benefícios exclusivos e sem anúncios
      OK