Cifra Club

2112 - Discovery

Rush

Cifra: Principal (violão e guitarra)
Tom: E
   This section (0:00 to X:XX) is in "free time", there is no specific
   time signature or note values provided.  Listen to the recording
   to get a feel for the duration of each note.
e|----------------------------0--------------------------------------|
B|-----------------------0-------------------------------------------|
G|------------------0---------------------0--------------------------|
D|-------------0--------------------0-----------------0--------0-----|
A|--------0---------------------------------------0--------0---------|
E|-0-----------------------------------------------------------------|

e|-------------------------------------------------------------------|
B|-------------------------------------------------------------------|
G|---------2--------2------------------------------------------------|
D|-----0----------------------0-----<7>------------0------0.---------|
A|-0------------0----------0-----<5>------------0-------0--------<7>-|
E|-------------------------------------------0--------0-------<5>----|

e|-------------------------------------------------------------------|
B|--------------------------------------------3-------h---3---5------|
G|-----------------------------2-----------2---------0-2-------------|
D|-----------------0-------0------------0----------------------------|
A|-----0-------0-----------------------------------------------------|
E|-0-----------------------------------------------------------------|

e|-3-5-3-2---------------------------------------0-------------------|
B|----------3-----3------3-----------0-----------1-------------------|
G|------------2-----2----2-----------0-----------0-------------------|
D|-----------------------0-----------0-------------------------------|
A|-------------------------------------------------------------------|
E|-------------------------------------------------------------------|

e|-2-----------------------------------------------------------------|
B|-3-----------0-----------3----------<7>----------------------------|
G|-2-----------0-----------2--------------<7>-----------<12>---------|
D|-0-----------0-----------0--------------------<12>-----------------|
A|--------------------------------------------------<12>-------------|
E|-------------------------------------------------------------------|

e|--------------------------------7------------------7---------------|
B|-3---5---3--------------------8-----------------8------------------|
G|-2---5---2--<5>------------------------------7---------------------|
D|-0---0---0-----------------------------------------------0---------|
A|-------------------------------------------------------------------|
E|-------------------------------------------------------------------|

   4/4 Slowly, clean tone, slight reverb
   G/D                               D

e|-7-----------7-----------7\------|-2-----------2-------------------|
B|-8-----------8-------8---8\------|-3-----------3-------3---3-------|
G|-7-------7---7-------7---7\------|-2-------2---2-------2---2-------|
D|-0-------------------0---0-------|-0-------------------0---0-------|
A|---------------------------------|-----------------------------0---|
E|---------------------------------|---------------------------------|

   G6/B            CaddD   G6/B      A7

e|-----------------0-------0-------|-0-----------0-------------------|
B|-3---------------5\--3---3\--2---|-2-------------------2---2-------|
G|-0---------------0-------0-------|-0-------0---------------0-------|
D|-0---------------0-------0-------|-2-----------------------2-------|
A|-2-------2/--3---3\--2---2\------|-0-------------------------------|
E|---------------------------------|---------------------------------|

   G/D                               D

e|-7-----------7-----------7\------|-2-----------2-----------2-------|
B|-8-------------------8---8\------|-3-------------------3---3-------|
G|-7-------7---------------7\------|-2-----------------------2-------|
D|-0-----------------------0-------|-0-------0---------------0-------|
A|---------------------------------|-----------------------------0---|
E|---------------------------------|---------------------------------|

   G6/B            CaddD   G6/B      A7
   1       2       3       4         1       2       3       4
   1   2   3   4   5   6   7   8     1   2   3   4   5   6   7   8  

e|-----------------0-------0-------|-0-----------0-------------------|
B|-3-------3/--5---5\--3---3\--2---|-2-------------------2---2-------|
G|-0-------0-------0-------0-------|-0-------0---------------0-------|
D|-0-------0-------0-------0-------|-2-----------------------2-------|
A|-2-------2/--3---3\--2---2\------|-0-------------------------------|
E|---------------------------------|---------------------------------|

   G/D                               D

e|-7-----------7-----------7\------|-2-------------------2-----------|
B|-8-------------------8---8\------|-3------h----------------3-------|
G|-7-------7---------------7\------|-2-----2-3--2--------------------|
D|-0-----------------------0-------|-0-------------------------------|
A|---------------------------------|-----------------------------0---|
E|---------------------------------|---------------------------------|

   G6/B            CaddD   G6/B      A7

e|-----------------0-------0-------|-0-------------------0-----------|
B|-3-------3/--5---5\--3---3\--2---|-2-----------------------2-------|
G|-0-------0-------0-------0-------|-0-----------0-------------------|
D|-0-------0-------0-------0-------|-2-------2-------------------0---|
A|-2-------2/--3---3\--2---2\------|-0-------------------------------|
E|---------------------------------|---------------------------------|

   G/D                               D

e|-7-----------7-----------7\------|-2-----------2-------------------|
B|-8-------------------8---8\------|-3-------------------3-----------|
G|-7-------7---------------7\------|-2-------2-----------------------|
D|-0-----------------------0-------|-0-------------------------------|
A|---------------------------------|-----------------------------0---|
E|---------------------------------|---------------------------------|

   G6/B            CaddD   G6/B      A7

e|-----------------0-------0-------|-0-------------------------------|
B|-3------3/---5---5\------3\------|-2---------------2-------2-------|
G|-0------0--------0-------0-------|-0-------------------0---0-------|
D|-0------0--------0-------0-------|-2-----------0-----------2-------|
A|-2------2/---3---3\------2\------|-0-------------------------------|
E|---------------------------------|---------------------------------|

   Repeat 3 times, gradually increasing tempo
   G/D         C/D             A/D               D       C/D     G/D
   Q           q       q       e     Q           q       q       e
e|-7-----------8-------8-------9---|-9-----------10------12\-----7---|
B|-8-----------8-------8-------10--|-10----------10------13\-----8---|
G|o7-----------9-------9-------9---|-9-----------11------12\-----7--o|
D|o0-----------0-------0-------0---|-0-----------0-------0-------0--o|
A|---------------------------------|---------------------------------|
E|---------------------------------|---------------------------------|

   G/D         C/D             A/D               D       C/D     
   Q           q       q       e     Q           q       q       e
e|-7-----------8-------8-------9---|-9-----------10------12\---------|
B|-8-----------8-------8-------10--|-10----------10------13\---------|
G|-7-----------9-------9-------9---|-9-----------11------12\---------|
D|-0-----------0-------0-------0---|-0-----------0-------0-------0---|
A|---------------------------------|---------------------------------|
E|---------------------------------|---------------------------------|

   Repeat 3 times
   D       C       Csus2   D   Dsus2     Dsus4   G       Gsus2   D
   q       q       q       e   q         q       q       q       e
e|---------------------------------|---------------------------------|
B|-7-------5-------3-------7---5---|-----8-------12------10------7---|
G|o7-------5-------5-------7---7---|-----7-------12------12------7--o|
D|o7-------5-------5-------7---7---|-----7-------12------12------7--o|
A|---------------------------------|---------------------------------|
E|---------------------------------|---------------------------------|

   D       G       Dsus2   D         C           G       Gsus2
   q       q       q       q         q           q       q       
e|---------------------------------|---------------------------------|
B|-7-------12------5-------7-------|-5-----------12------10----------|
G|-7-------12------7-------7-------|-5-----------12------12----------|
D|-7-------12------7-------7-------|-5-----------12------12----------|
A|---------------------------------|---------------------------------|
E|---------------------------------|---------------------------------|

   D       G       Dsus2   D         C           C       Csus2
   q       q       q       q         q           q       q      
e|---------------------------------|---------------------------------|
B|-7-------12------5-------7-------|-5-----------5-------3-----------|
G|-7-------12------7-------7-------|-5-----------5-------5-----------|
D|-7-------12------7-------7-------|-5-----------5-------5-----------|
A|---------------------------------|---------------------------------|
E|---------------------------------|---------------------------------|


   D               D/C               G/B
   h   e   e   e   h   e   e   e     w       e   e   e   e   e   e
e|-2-------------------------------|---------------------------------|
B|-3---------------3---------------|-3-------------------------------|
G|-2--(2)--2---2---2---------------|-0-------0---0---0---0---0---0---|
D|-0--(0)--0---0---0---0---0---0---|-0-------0---0---0---0---0---0---|
A|-----------------3---3---3---3---|-2-------2---2---2---2---2---2---|
E|---------------------------------|---------------------------------|

   C            G/B                  A7
   h      q        h       q         w       e   e   e   e   e   e
e|-0---------------3---------------|-0-------------------------------|
B|-5---------------3---------------|-2-------------------------------|
G|-0---------------0---------------|-0-------0---0---0---0---0---0---|
D|-0------0--------0-------0-------|-2-------2---2---2---2---2---2---|
A|-3------3--------2-------2-------|-0-------------------------------|
E|---------------------------------|---------------------------------|


   e   e   e   e   e   e   e   e     e   e   e   e   e   e   e   e
e|---------------------------------|---------------------------------|
B|---------------------------------|---------------------------------|
G|-0---0---0---0---0---0---0---0---|-0---0---0---0---0---0---0---0---|
D|-12--12--12--12\-9---9---9---9/--|-11--11--11--11\-7---7---7---7/--|
A|-0---0---0---0---0---0---0---0---|-0---0---0---0---0---0---0---0---|
E|---------------------------------|---------------------------------|


   e   e   e   e   e   e   e   e     e   e   e   e   e   e   e   e
e|---------------------------------|---------------------------------|
B|---------------------------------|---------------------------------|
G|-0---0---0---0---0---0---0---0---|-0---0---0---0---0---0---0---0---|
D|-9---9---9---9\--5---5---5---5/--|-7---7---7---7\--4---4---4---4/--|
A|-0---0---0---0---0---0---0---0---|-0---0---0---0---0---0---0---0---|
E|---------------------------------|---------------------------------|


   e   e   e   e   e   e   e   e     e   e   e   e   e   e   e   e
e|---------------------------------|---------------------------------|
B|---------------------------------|---------------------------------|
G|-0---0---0---0---0---0---0---0---|-0---0---0---0---0---0---0---0---|
D|-5---5---5---5\--2---2---2---2/--|-7---7---7---7\--4---4---4---4/--|
A|-0---0---0---0---0---0---0---0---|-0---0---0---0---0---0---0---0---|
E|---------------------------------|---------------------------------|


   Rit.
   e   e   e   e   e   e   e   e     
e|---------------------------------|
B|---------------------------------|
G|-0---0---0---0---0---0---0---0---|
D|-5---5---5---5\--0---0---0---0---|
A|-0---0---0---0---0---0---0---0---|
E|---------------------------------|

   A                                   D         E
   q     s e   s s   s e   s s q       s s s e   q     s s s s   e 
e|---------------------------------|---------------------------------|
B|-------2-----2h3---2-----3p2-----|---7-7h8-7---9-----9-9h109-------|
G|-2-----------2-------------------|---7-7---7---9-----9-9---9-------|
D|-2-------2---2h4-----2---4p2-2---|---7-7h9-7---9-----9-9h119-------|
A|-0-----------------------0---0---|---------------------------------|
E|---------------------------------|-----------------------------0---|

   Repeat 3 times
   A                                   D         E
   q     s e   s s   s e   s s q       s s s e   q     s s s s   e 
e|---------------------------------|---------------------------------|
B|-------2-----2h3---2-----3p2-----|---7-7h8-7---9-----9-9h109-------|
G|o------------2-------------------|---7-7---7---9-----9-9---9------o|
D|o--------2---2h4-----2---4p2-2---|---7-7h9-7---9-----9-9h119------o|
A|-0-----------------------0---0---|---------------------------------|
E|---------------------------------|-----------------------------0---|

   A                                   D         E
   q     s e   s s   s e   s s q       s s s e   q     s s s s   e 
e|---------------------------------|---------------------------------|
B|-------2-----2h3---2-----3p2-----|---7-7h8-7---9-----9-9h109-------|
G|o------------2-------------------|---7-7---7---9-----9-9---9------o|
D|o2-------2---2h4-----2---4p2-2---|---7-7h9-7---9-----9-9h119------o|
A|-------------------------0---0---|---------------------------------|
E|---------------------------------|-----------------------------0---|
exibições 5.214
Acordes para:

    0 comentários

    mostrar mais comentários

    Conseguiu tocar?

    2 tocaram 0 ainda não

    Grave um vídeo tocando 2112 - Discovery e mande pra gente!

    00:00 / 00:00
    outros vídeos desta música
    repetir qualidade Automático
    Outros vídeos desta música
    00:00 / 00:00
    Automático
    OK