Cifra Club

Aprenda

Fly by night

Rush

Cifra: Principal (violão e guitarra)
Tom: G
 Riff 1:
  D      A7/4          C9      G/B        Gm/Bb   A  G  A
|-2--2---3--3-|-------------3-------3---------3--------------------|
|-3--3---3--3-|-------------3-------3---------3---2--0--2----------|
|-2--2---0--0-|-------------0-------0---------0---2--0--2----------|
|-0--0---2--2-|----------2-------0----------0-----2--0--2----------|
|-------------|--0--2--3-------2-------0--1-------0--0--0----------|
|-------------|----------------------------------------------------|

 Riff 2:
Guitarra 1:
  D      A7/4          C9      G/B        Gm/Bb   A  G  A
|-2--2---3--3-|-------------3-------3---------3--------------------|
|-3--3---3--3-|-------------3-------3---------3---2--0--2----------|
|-2--2---0--0-|-------------0-------0---------0---2--0--2----------|
|-0--0---2--2-|----------2-------0----------0-----2--0--2----------|
|-------------|--0--2--3-------2-------0--1-------0--0--0----------|
|-------------|----------------------------------------------------|

Guitarra 2:
  D                 A7/4              C9    G/B    G/A Gm/Bb  A   G A 
|-2-2---2---2-2-2-|-3-3---3---3-3-3-|-3-3-3-3---3-3-3-|-3-3-3-----------| 
|-3-3---3---3-3-3-|-3-3---3---3-3-3-|-3-3-3-3---3-3-3-|-3-3-3-2---0-2---|
|-2-2---2---2-2-2-|-0-0---0---0-0-0-|-0-0-0-0---0-0-0-|-0-0-0-2---0-2---| 
|-0-0---0---0-0-0-|-2-2---2---2-2-2-|-2-2-2-0---0-0-0-|-0-0-0-2---0-2---| 
|-----------------|-0-0---0---0-0-0-|-3-3-3-2---2-2-0-|-1-1-1-0---0-0---| 
|-----------------|-----------------|-----------------|-----------------|
 
  Riff 3:
Guitarra 1:
    G   D                 G             G   D       G   D   A     G A  
|---7-------------|-------3---14-14-|---7-----------3-|-2---------------| 
|---8---7-7---7---|-------3---15-15-|---8---7-7---7-3-|-3---2-----0-2/--| 
|---7---7-7---7---|-------0---14-14-|---7---7-7---7-0-|-2---2-----0-2/--| 
|---9---7-7---7---|-------0---------|---9---7-7---7-0-|-0---2-----0-2/--| 
|---10--5-5---5---|-3-2-0-2---------|---10--5-5---5-2-|-----0-----0-0---| 
|-----------------|-------3---------|---------------3-|-----------------|

    G   D                 G           C9    G/B         Gm/Bb  A 
|---7-------------|-------3---3-----|-----3-------3---|-----3-----------| 
|---8---7-7---7---|-------3---3-----|-----3-------3---|-----3-2---------| 
|---7---7-7---7---|-------0---0-----|-----0-------0---|-----0-2---------| 
|---9---7-7---7---|-------0---------|---2-------0-----|---0---2---------| 
|---10--5-5---5---|-3-2-0-2-----0-2-|-3-----2---------|-1-----0---0-0-2-| 
|-----------------|-------3---------|-----------------|-----------------| 

Guitarra 2:
    G   D           C9    G             G   D               A     G A 
|---3---2-2---2---|-3---3-3---3-3---|---3---2-2---2-2-|-2---------------| 
|---3---3-3---3---|-3---3-3---3-3---|---3---3-3---3-3-|-3---2-----0-2---| 
|---0---2-2---2---|-0---0-0---0-0---|---0---2-2---2-2-|-2---2-----0-2---| 
|---0---0-0---0---|-2---2-0---0-0---|---0---0-0---0-0-|-0---2-----0-2---| 
|---2-------------|-3---3-2---2-2---|---2-------------|-----0-----0-0---| 
|---3-------------|-------3---3-3---|---3-------------|-----------------|

    G   D           C9    G    G/A G/B C9    G/B         Gm/Bb A 
|---3---2-2---2---|-3-3-3-3-----3--3-|-3-----2---------|-3---------------|
|---3---3-3---3---|-3-3-3-3-----3--3-|-3-----3---------|-3-----2---------|
|---0---2-2---2---|-0-0-0-0-----0--0-|-0-----0---------|-0-----2---------| 
|---0---0-0---0---|-2-2-2-0-----0--0-|-2-----0---------|-0-----2---------| 
|---2-------------|-3-3-3-2-----0--2-|-3-----2---------|-1-----0---------| 
|---3-------------|-------3----------|-----------------|-----------------| 

 Riff 4:
  D                 F                 G     C   D 
|-2-----2---------|-5-----5---------|-7-----8-----10--|-------------10--| 
|---3-------3-----|---6-------6-----|-8-----8---8-10--|---10------10----| 
|-----2-------2---|-----5-------5---|-7-----9-----11--|-----11--11------| 
|-----------------|-----------------|-----------------|-------12--------| 
|-----------------|-----------------|-----------------|-----------------| 
|-----------------|-----------------|-----------------|-----------------| 

  Am                Fmaj7             G  
|-0-----0---------|-0---------0-----|-----------------|-----------------| 
|---1-------1-----|-------1---------|-------3--/--15--|-----1515151515--| 
|-----2-------2-0-|-----2-------2---|-3-----0-----0---|-------0-0-0-0---| 
|-----------------|---3-------------|-4-----0-----0---|-------0-0-0-0---| 
|-----------------|-----------------|-----------------|-----------------| 
|-----------------|-----------------|-----------------|-----------------| 

  D                 F                 G     C   D 
|-2-----2-----2---|-5-----5-----5---|-7-----8-----10--|-------------10--| 
|---3-------3-----|---6--------h----|-8-----8---8-10--|---10------10----| 
|-----2-----------|-----5-----05----|-7-----9-----11--|-----11--11------| 
|-----------------|-----------------|-----------------|-------0---------| 
|-----------------|-----------------|-----------------|-----------------| 
|-----------------|-----------------|-----------------|-----------------| 

  Am                Fmaj7             G 
|-0-----0---------|-------0---------|-----------------|-----------------| 
|---1-------1-----|-----1-----1-----|-3-----3---/-15--|-------15151515--| 
|-----2-------2---|---2---------2---|-4-----0-----0---|-------0-0-0-0---| 
|-----------------|-3---------------|-------0-----0---|-------0-0-0-0---| 
|-----------------|-----------------|-----------------|-----------------| 
|-----------------|-----------------|-----------------|-----------------| 

  Riff 5:
Guitarra 1:
  C9    G/B         Gm/Bb A   G A  
|-----3-------3---|-----3-----------|
|-----3-------3---|-----3-2---0-2/--|
|-----0-------0---|-----0-2---0-2/--|
|---2-------0-----|---0---2---0-2/--|
|-3-----2-------0-|-1-----0---0-0---|
|-----------------|-----------------| 

Guitarra 2:
  C9   G/B          Gm/Bb A 
|-3-----3---------|-3---------------| 
|-3-----3---------|-3-----2---------| 
|-0-----0---------|-0-----2---------| 
|-2-----0---------|-0-----2---------| 
|-3-----2---------|-1-----0---------| 
|-----------------|-----------------| 


Intodução: Riff 1=x2 + Riff 2

Verso 1:
Riff 1: 
Why try? I know why.
This feeling inside me says it's time I was gone.

Riff 1:
Clear head, new life ahead.
It's time I was king now, not just one more pawn.

Refrão:
Riff 3:  
Fly by night away from here, change my life again.
Fly by night, goodbye my dear.
My ship isn't coming and I just can't pretend.

Riff 2: 

Verso 2:
Riff 1: 
Moon rise, thoughtful eyes.
Staring back at me from the window beside.

Riff 1: 
No fright, or hindsight.
Leaving behind that empty feeling inside.

Refrão:
Riff 3:  
Fly by night away from here, change my life again. 
Fly by night, goodbye my dear. 
My ship isn't coming and I just can't pretend. Woah!

Solo:
|----------------------------------------------------------------|
|----------------------------------------------------------------|
|-9b(11)---9b(11)-----9-7---7-7---9-7----5~--4~--2-3-------------|
|-------------------9-----9-----9-----9--------------2p3-2p3-2-0-|
|----------------------------------------------------------------|
|----------------------------------------------------------------|

|-------------------------------7-------7------7-9-10-12b(14)----|
|-----------------------7-9-10----10-7----10---------------------|
|------7-9b(11)--9b(11)------------------------------------------|
|--7-9-----------------------------------------------------------|
|----------------------------------------------------------------|
|----------------------------------------------------------------|

|-12-9-7-10-9----15-17b19~~-----------------------------------------------|
|-------------10----------------------------------------------------------|
|---------------------------------7-7-7-7-7-7-7-7-7-----7-7-7-7-7-7-7-7-7-|
|-----------------------------7-9-------------------7-9-------------------|
|-------------------------------------------------------------------------|
|-------------------------------------------------------------------------|

|-------------------------------------------------------------------------|
|----------------------------------10b12-10b12-10b12~---10-9-7------------|
|------7-9-7---7-9-7---7-9-7---7----------------------7--------9-7---7----|
|--7-9-------9-------9-------9-------------------------------------9---9--|
|-------------------------------------------------------------------------|
|-------------------------------------------------------------------------|

|-12b14-12b14-12b14~-12-10-12-10---10-12-10---10------10-12-12-10----------|
|-------------------------------12----------12---10-12-----------12-12-10--|
|------------------------------------------------------------------------11|
|--------------------------------------------------------------------------|
|--------------------------------------------------------------------------|
|--------------------------------------------------------------------------|

|---------------------------------------------|
|---------------------------------------------|
|-11-9-7-----7-9-7----------------------------|
|---------9---------9-7-----------------------|
|-----------------------9--7-5----------------|
|------------------------------7~~------------|

Refrão:
Riff 3: 
Fly by night away from here, change my life again.
Fly by night, goodbye my dear. 
My ship isn't coming and I just can't pretend.

Verso 3:
Riff 4: 
Start a new chapter, I find what I'm after, is changing every day. 
The change of a season's enough of a reason to want to get away.
Quiet and pensive, my thoughts apprehensive, the hours drift away. 
Leaving my homeland, playing a lone hand, my life begins today.

Refrão:
Riff 3: 
Fly by night away from here, change my life again.
Fly by night, goodbye my dear.
My ship isn't coming and I just can't pretend.

Riff 5:
My ship isn't coming and I just can't pretend.

Riff 3:
Fly by night away from here, change my life again.
Fly by night, goodbye my dear.
My ship isn't coming and I just can't pretend.

Riff 5:
My ship isn't coming and I just can't pretend.

Riff 5:
My ship isn't coming and I just can't pretend.  

e para termeinar ele faz um ré: ´´D``
Composição de Geddy Lee / Neil Peart
38.178 exibições
    • ½ Tom
    • A
    • Bb
    • B
    • C
    • Db
    • D
    • Eb
    • E
    • F
    • F#
    • G
    • Ab
  • Adicionar à lista

    0 comentários

    Mostrar mais comentários

    Conseguiu tocar?

    8 Tocaram 0 Ainda não

    Grave um vídeo tocando Fly by night e mande pra gente!

    00:00 / 00:00
    outros vídeos desta música
    repetir qualidade Automático
    Outros vídeos desta música
    00:00 / 00:00
    Automático

    Cifra Club Pro

    Aproveite o Cifra Club com benefícios exclusivos e sem anúncios
    7 dias grátis
    Cifra Club Pro
    Aproveite o Cifra Club com benefícios exclusivos e sem anúncios
    7 dias grátis
    OK