Cifra Club

Red Barchetta

Rush

Cifra: Principal (violão e guitarra)
Tom: F
Primeiro eu vou mostrar como se faz cada riff depois onde cada um deles aparecem.

Uma breve legenda:
~ = vibrato
h = hammer on
p = pull off
s = slide
b = bend 
r = release bend
/ = slide up
\ = slide down
 = harmônico natural
[5] = harmônico artificial


(Introdução)
e:------------------------------------|
B:------------------------------------|
G:--<12>------------<12>--------------|
D:----------<7>-----------<7>---------|
A:------<7>-----<12>----<7>-----<12>--|
E:------------------------------------|

(Riff)
e:-------------------------------|
B:--------------------------<7>--|
G:----<7>-<5>--------<7>-<5>-----|
D:-----------<7>-----------------|
A:--<9>-----------<9>------------|
E:-------------------------------|


* Existem muitas variações destes temas em várias partes da canção. Estas são apenas as estruturas básicas.

(Riff 2)
  A#4                               A#4/F#
e|---------------------------------|--------------------------------|
B|--------3--2------2------3---2---|--------3--2------2-----3-2-----|
G|------2--------2----2------------|------2--------2----2---------2-|
D|----2--------2--------2----------|----2--------2--------2-----2---|
A|--0------------------------------|--------------------------------|
E|---------------------------------|--2-----------------------------|

  A#4/G                                D#2
e|------------------------------------|--------0----------------0---|
B|------------------------------------|------3---3----2-2-2-2h3-----|
G|---------3--2------2------3--2------|----2-------2----------------|
D|-------2--------2----2-----------2--|--0--------------------------|
A|-----2--------2--------2-------2----|-----------------------------|
E|--3---------------------------------|-----------------------------|

(Riff 3)
         F                                              G
e|------|----1------1------1------1------1------1-------3--3--|
B|------|----1------1------1------1------1------1-------3--3--|
G|------|-----------------------------------------------4--4--|
D|------|-----------------------------------------------5--5--|
A|-3-2--|--------------------------------------------3--5--5--|
E|------|-1----0--0---0--1---0--0----0-1---0--0---0--1--3--3--|

(Riff 4)
   G  A    D                                G   A  A#4
e|-------------------|----------------------7--/9--10-9\-------|
B|-------------------|----------------------8--/10-10-10\------|
G|---------2---------|-2--2----------2------7--/9--9--9\-------|
D|----2----0----2----|-0--2----2-----0-------------------------|
A|----0---------0----|---------0-------------------------------|
E|-3b---3b---3b---3b-|------3b---3b----3b----------------------|

[Riff 5]
    F     C                             F G
e|--1--1----------1--1----------1--1----------5s7--7--7--------|
B|--1--1--1--1----1--1--1--1----1--1--1--1----6s8--8--8--------|
G|--2--2--0--0----2--2--0--0----2--2--0--0----5s7--7--7--------|
D|--3--3--2--2----3--3--2--2----3--3--2--2---------------------|
A|--3--3--3--3----3--3--3--3----3--3--3--3---------------------|
E|-------------------------------------------------------------|


[Riff 6]
   G/D          A/D
e|--7---------7---9------------9----7---------7-9----10---9-----------|
B|--8---------8---10-----------10---8---------8-10---10---10----------|
G|--7---------7---9------------9----7---------7-9----9----9-----------|
D|--0-0-0-0-0-0---0--0-0-0-0-0-0----0-0-0-0-0-0-0----0----0-----------|
A|--------------------------------------------------------------------|
E|--------------------------------------------------------------------|

[Riff 7] (tecnicamente começa com o Bb primeiro)
                Bb  F               C#  G#
e|-7-7-9--10-9--|-----------------------------------------------|
B|-8-8-10-10-10-|--3~--1--1---3~--1--1---6~--4--4---6~--4--4----|
G|-7-7-9--9--9--|--3~--2--2---3~--2--2---6~--5--5---6~--5--5----|
D|-0-0-0--0--0--|--3~--3--3---3~--3--3---6~--6--6---6~--6--6----|
A|--------------|--1~--3--3---1~--3--3---4~--6--6---4~--6--6----|
E|--------------|------1--1-------1--1-------4--4-------4--4----|

[Riff 8]
    E   B                       G    D
e|-------------------------------------------------------------------|
B|--9~--7--7---9~--7--7---12~---------------12-12-12-12-12-12-12-12--|
G|--9~--8--8---9~--8--8---12~--11-11-11-11--12-12-12-12-12-12-12-12--|
D|--9~--9--9---9~--9--9---12~--12-12-12-12--12-12-12-12-12-12-12-12--|
A|--7~--9--9---7~--9--9---10~--12-12-12-12--10-10-10-10-10-10-10-10--|
E|------7--7-------7--7--------10-10-10-10---------------------------|

Progressão da música:

[Intro] x5

[Riff 1] x4

[Riff 2] x1

[Riff 2] x2 no verso:

        My uncle has a country place,
        that no one knows about.
        He says it used to be a farm
        before the Motor Law.

        And on Sundays, I elude the "Eyes"
        and hop the turbine freight -
        to far outside the wire
        where my white-haired uncle waits.

[Riff 3] x2

[Riff 4] x1

[Riff 4] x2 no verso:

        Jump to the ground as the turbo slows to cross the borderline.
        Run like the wind as excitement shivers up and down my spine.

[Riff 5] x2 no verso:

Down in his barn, my uncle preserved for me an old machine - for 50 odd
years. To keep it as new has been his dearest dream.

[Intro] x1

[Riff 2] x2 no verso:

        I strip away the old debris
        that hides the shining car.
        a brilliant red Barchetta from a
        better vanished time.

        Fire up the willing engine,
        responding with a roar!
        Tires spitting gravel I commit
        my weekly crime.

e|----------------------------|
B|----------------------------|
G|----------------------------|
D|----------------------------|
A|----------------------------|
E|--------5-------------------|
  (Dar um bend infinity nesta nota, depois misturá-la com o riff seguinte)

[Riff 6] x2

[Riff 6] x3 no verso:

        Wind in my hair, shifting and drifting.
        - mechanical music,

[Riff 7] x1 no verso:

        - adrenalin surge.....

[Riff 7] x1 no verso:

   Well weathered leather, hot metal and oil, the scented country air.

[Riff 8] x1 no verso:

  Sunlight on chrome, the blur of the landscape, every nerve aware!

[Guitar Solo] (in 7/4 btw)

e|--9--7--5----------------|-------------------------------------------|
B|----------7--5-----------|-------------------------------------------|
G|---------------6--4------|--------------------------4-6-7--6-7-9-7---|
D|--------------------7--4-|--------------------4-6-7------------------|
A|-------------------------|--------------4-5-7------------------------|
E|-------------------------|-5~-5~-5~--7-------------------------------|

e|---------------------------------|-----------------------------------|
B|--------------7----------[7]h8p7-|---5-------------------------------|
G|-9b11r9-7--9----[9]b11~----------|-7---[7]-6--7b9r7b9--7-6---------6-|
D|---------------------------------|-------------------------7----/7---|
A|---------------------------------|---------------------------7-------|
E|---------------------------------|-----------------------------------|

e|-----------------|-----------------------------------|---------5-----|
B|--5--5-------5---|-7~--7~-7~--7~--7-7--------------7-|-------3-------|
G|-----------6---6-|---------------------6-6-----4s6---|-2s3s4---------|
D|-------5s7-------|-------------------------7---------|---------------|
A|-----------------|-----------------------------------|---------------|
E|-----------------|-----------------------------------|---------------|

e|-------5---------5--|---------10-------10-------12-----------14------|
B|-----3---------3----|-------10-------10------------------------------|
G|-3s4-----2s3s4------|--9s11-------11------11s12----12--12s14---------|
D|--------------------|------------------------------------------------|
A|--------------------|------------------------------------------------|
E|--------------------|------------------------------------------------|

[Riff 4] x1 (repetir primeira parte 3x)

[Riff 2] x2 no verso:

        Suddenly ahead of me,
        across the mountain side,
        a gleaming alloy air car shoots towards
        me two lanes wide.

        I spin around with shrieking tires
        to run the deadly race;
        go screaming through the valley as
        another joins the chase.

[Riff 3] x2

[Riff 4] x1

[Riff 4] x2 no verso:

Drive like the wind, straining the limits of machine and man.
Laughing out loud with fear and hope, I've got a desperate plan.

[Riff 5] x2 no verso:

At the one lane bridge I leave the giants stranded at the riverside.
Race back to the farm to dream with my uncle at the fireside.

[Riff 5] x1

[Intro] x7

[Riff 1] x4

Repetir até desvanecer:

e|------------------------------------------------------------|
B|------------------------------------------------------------|
G|---0-----2-------------0------------------------------------|
D|-----2--------------0------4--------------------------------|
A|-------------0---4------------------------------------------|
E|------------------------------------------------------------|
exibições 6.238
Acordes para:
    Composição: Geddy Lee / Kåre Christoffer Vestrheim / Neil Peart Colaboração e revisão:
    • Thiago Rossi

    0 comentários

    mostrar mais comentários

    Conseguiu tocar?

    0 tocaram 0 ainda não

    Grave um vídeo tocando Red Barchetta e mande pra gente!

    00:00 / 00:00
    outros vídeos desta música
    repetir qualidade Automático
    Outros vídeos desta música
    00:00 / 00:00
    Automático
    OK