Cifra Club

Aprenda

Subdivisions

Rush

Tab de baixo: Principal
Refrão:
|----------|-------|-----------4-----|------------------|
|-3:-------|-------|-----7-7-5---7-5-|-4-4--------------|
|-4:-------|---2---|-----------------|-----7-5-4-5------|
|----3-3-3-|-5---5-|-3-3-------------|-------------5----|

|---------|-------|-------|---------|-----------|-------------|
|---------|-------|-------|---------|-----------|-------------|
|---------|-------|-------|---------|-----------|-------R--R--|
|-3---3-3/|-5-7-5-|-3-3-3/|-5-5-7-5-|-3-3---3-3/|-5-5-7--7----|

|-------|-------|-------|-----------|----------|-----------|-------|
|-------|-------|-------|-----------|----------|-----------|-------|
|-------|-------|-------|-----------|----------|-------R---|-------|
|-3-3-3/|-5-7-5-|-3-3-3/|-5-5-5-7-5-|-3-3--3-3/|-5-5-7--7--|-3-3-3-|

|---------||-----------|-----------|-----------|-------|--------------|
|---------||-----------|-----------|-----------|-------|--------------|
|---------||-----------|-----------|-----------|-------|--------------|
|-5-5-7-5-||-3-3-2-3-3/|-5-5-5-7-5-|-5-5-3/5-3/|-7-5-5\|-3-3-2-3----3/|

|-----------|-----------|---------|
|-----------|-----------|---------|
|-----------|-----------|---------|
|-5-5-5-7-3/|-5-5-3/5-5-|-7-7-5-5-|

Verso:
|---------------------------|
|*-4:-----------------------|
|*-4:---------------2---0-0-|
|-----2-2-2---2--5----------|

Refrão:
|----------|-------|-------------4---|---------|-------|
|-3:-------|-------|-------5-5-7--/7-|-5-4-----|-------|
|-4:-------|-------|---3-5-----------|-----7-5-|-------|
|----3-3-3/|-5-7-5-|-3---------------|---------|-3-3-3/|

|-------|-------|-----------|-------------|-----------|-------|---------|
|-------|-------|-----------|-------------|-----------|-------|---------|
|-------|-------|-----------|-----R--R----|-------R---|-------|---------|
|-5-7-5-|-3-3-3/|-5-5-5-7-5-|-3-3--3--3/--|-5-3-7---7-|-3-3-3/|-5-7-5---|

|-------|---------|-----------|-----------|-------|---------|
|-------|---------|-----------|-----------|-------|---------|
|-------|---------|-----R-----|-------R---|-------|---------|
|-3-3-3/|-5-5-7-5-|-3-3--3-3/-|-5-5-7--7--|-3-3-3/|-5-5-7-5-|

|--------------|-----------|-----------|
|--------------|-----------|-----------|
|--------------|-----------|-----------|
|-/3-3-2-2-3-3/|-5-5-5/7-3-|-5-5-3/5-5-|

|-------------|-----------|-----------|---------|---9-11---|-------------|
|-------------|-----------|-----------|-------7-|-9------9\|-------------|
|-------------|-----------|-----------|---5-7---|----------|-----R-------|
|-7-7-7-5-5-5-|-3-3-2-3-3/|-5-5-5-7-3/|-5-------|----------|-3-3--3----3/|

|-----------|-------------|---------------|-----------|---------|
|-----------|-------------|---------------|-----------|---------|
|-----------|-------------|---------------|-----------|---------|
|-5-5-5-7-3/|-5-5-3-5-5-3-|-7-7-7-5-5-3-2-|-3-3-3-3-3-|-5-5-7-3-|

|---------|---------||-----------|-----------|-------------|
|-7-5-4---|---------||-----------|-----------|-------------|
|-------7-|-5-4-5---||-----------|-----------|-------------|
|---------|-------5\||-3-3-2-3-3-|-5-5-5-7-3/|-5-5-3-5-3-3-|

|-------------|-----------|-----------|-----------|---------|
|-------------|-----------|-----------|-----------|---------|
|-------------|-----------|-----------|-----------|---------|
|-7-7-7-5-5-5-|-3-3-2-3-3-|-5-5-5-7-7-|-5-5-5-5-5-|-7-7-5-5-|
Composição de Geddy Lee / Kåre Christoffer Vestrheim / Neil Peart
Colaboração e revisão:
  • Mateus Kavazo
767 exibições

0 comentários

Mostrar mais comentários

Conseguiu tocar?

0 Tocaram 0 Ainda não

Grave um vídeo tocando Subdivisions e mande pra gente!

00:00 / 00:00
outros vídeos desta música
repetir qualidade Automático
Outros vídeos desta música
00:00 / 00:00
Automático

Cifra Club Pro

Aproveite o Cifra Club com benefícios exclusivos e sem anúncios
7 dias grátis
Cifra Club Pro
Aproveite o Cifra Club com benefícios exclusivos e sem anúncios
7 dias grátis
OK