Cifra Club

The Garden

Rush

Cifra: Principal (violão e guitarra)
Selo Cifra Club: esta cifra foi revisada para atender aos critérios oficiais da nossa Equipe de Qualidade.
tom: Bb
Riff 1

E|-----------------------------------------------------------|
B|---------------1-------------------------------------------|
G|---2---3---2-------2---3---2-----2---3---2---0---0---0---0-|
D|-3---3---3---3---3---3---3---3-3---3---3---3---3---3---3---|
A|-----------------------------------------------------------|
E|-----------------------------------------------------------|

E|-----------------------------------------------------------|
B|---------------1-------------------------------------------|
G|---2---3---2-------2---3---2-----2---3---2---0---0---0---0-|
D|-3---3---3---3---3---3---3---3-3---3---3---5---5---5---5---|
A|-----------------------------------------------------------|
E|-----------------------------------------------------------|

Riff 2
Part 1:
E|-------------------------------------------------------------------|
B|---3-4-3-------3-4-3-------------------------------3-4-3-----------|
G|---------------------------7-8-7-------7-8-7-----------------------|
D|-------------------------------------------------------------------|
A|-------------------------------------------------3-----------------|
E|-3-----------3-----------6-----------6-----------------------------|

E|---------------------------------------|
B|----3-4-3------------------------------|
G|----------------7-8-7-------7-8-7------|
D|---------------------------------------|
A|--3-----------6-----------6------------|
E|---------------------------------------|

    Part 2:
E|-------------------------------------------------------------------|
B|-----3-4-3-------3-4-3---------------------------------------------|
G|-----------------------------7-8-7-------7-8-7-------7-8-7---------|
D|-------------------------------------------------------------------|
A|---------------------------------------------------6---------------|
E|--3------------3-----------6-----------6---------------------------|

E|----------------------------------------|
B|----------------3-4-3------3-4-3--------|
G|----7-8-7-------------------------------|
D|----------------------------------------|
A|--5-----------3----------1--------------|
E|----------------------------------------|

Riff 3
E|-------------------------------------------------------------------|
B|------6-------6-------6-------6-------5-------5-------5-------5----|
G|----5---5---5---5---5---5---5---5---5---5---5---5---5---5---5---5--|
D|--3-------3-------3-------3-------3-------3-------3-------3--------|
A|-------------------------------------------------------------------|
E|-------------------------------------------------------------------|



(Riff 1)

         F                    D#sus2             A#m                    F
In this one of many possible worlds, all for the best, or some bizarre test?
                         D#sus2
It is what it is - and whatever
        A#m                 F
Time is still the infinite jest
    F                     D#sus2               A#m                    F
The arrow files when you dream, the hours tick away - the cells tick away
                             D#sus2
The Watchmaker keeps to his schemes
               A#m                F
The hours tick away - they tick away

(Riff 2 - Part 1 x2 - Part2 x1)

The measure of a life is a measure of love and respect
So hard to earn, so easily burned
The measure of a life is a measure of love and respect
So hard to earn, so easily burned
In the fullness of time
A garden to nurture and protect

(Riff 1)
        F                      D#sus2
In the rise and the set of the sun
                    A#m                           F
'Til the stars go spinning - spinning 'round the night
                         D#sus2
It is what it is - and forever
      A#m                 F
Each moment a memory in flight
    F                     D#sus2                   A#m                    F
The arrow flies while you breathe, the hours tick away - the cells tick away
                                 D#sus2
The Watchmaker has time up his sleeve
               A#m                F
The hours tick away - they tick away

(Riff 2 - Part 1 x2 - Part2 x1) x2

The measure of a life is a measure of love and respect
So hard to earn, so easily burned
The measure of a life is a measure of love and respect
So hard to earn, so easily burned
In the fullness of time
A garden to nurture and protect
The treasure of a life is a measure of love and respect
The way you live, the gifts that you give
The treasure of a life is a measure of love and respect
The way you live, the gifts that you give
In the fullness of time
Its the only return that you expect

(Riff 3 x8)

The future disappears into memory
With only a moment between
Forever dwells in that moment
Hope is what remains to be seen

(Solo)

(Riff 2 - Part 1 x4 - Part 2 x6)

In the fullness of time
Its the only return that you expect




Solo:
E|---------------------------------------------------------------------------|
B|-------------------------------------------------10-11p10-13~~~~--11h13p11-|
G|----------------------------------------------10---------------------------|
D|---3~~~-----------------------------------/10------------------------------|
A|-------3-5-6~~~-6-5-3-5~~-3h5p3--5p3---------------------------------------|
E|-------------------------------------5~~~----------------------------------|

E|---13~~~~---13--13p10~---11p10-------10h11p10-10------------------8h10p8---|
B|-------------------------------11-13-------------------------8h10----------|
G|-------------------------------------------------10----10~-----------------|
D|----------------------------------------------------13---------------------|
A|---------------------------------------------------------------------------|
E|---------------------------------------------------------------------------|

E|---------------------------------------------------------------------------|
B|---10p8-------8h10p8----8/10-10----10-10h13p10-/13-15p13-15h16-15h16-------|
G|--------10p8--------10----------12-----------------------------------------|
D|---------------------------------------------------------------------------|
A|---------------------------------------------------------------------------|
E|---------------------------------------------------------------------------|
Outros vídeos desta música
    3.458 exibições
      • ½ Tom
      • A
      • Bb
      • B
      • C
      • Db
      • D
      • Eb
      • E
      • F
      • F#
      • G
      • Ab
    • Adicionar à lista

    Afinação da cifra

    Afinador online

      0 comentários

      Ver todos os comentários

      Entre para o Cifra Club PRO

      Tenha acesso a benefícios exclusivos no App e no Site

      • Chega de anúncios

      • Badges exclusivas

      • Mais recursos no app do Afinador

      • Atendimento Prioritário

      • Aumente seu limite de lista

      • Ajude a produzir mais conteúdo

      Cifra Club Pro

      Aproveite o Cifra Club com benefícios exclusivos e sem anúncios
      Cifra Club Pro
      Aproveite o Cifra Club com benefícios exclusivos e sem anúncios
      Ops (: Contenido disponible sólo en portugués.
      OK