Cifra Club

The Trees

Rush

Cifra: Principal (violão e guitarra)
Tom: A
[Intro]:
    D                       F#                   C#m
6/8 e   e   e   e   e   e    e   e   e   e   q    e   e   e   e   e   e
e:--2-----------0---------|--2-----------2-----|--4-----------4---------|
B:------3-----------3-----|------2-----------2-|----------5-------5-----|
G:----------2-------------|--------------------|------6-----------------|
D:--0-------------------0-|----------4---------|------------------------|
A:------------------------|------------------4-|--4-------------------4-|
E:------------------------|--2-----------------|------------------------|

    A5                   E                        G           A
    e   e   e   e   q    e   e   e   e   e   e    e   e   e   e   e   e
e:--5-----------5-----|--------------0---------|--3---------------------|
B:------5-----------5-|--0-------0-------0-----|------3-------2---------|
G:----------7---------|------1-----------------|----------------------2-|
D:------------------7-|----------------------0-|------------------2-----|
A:--0-----------------|------------------------|----------2---0---------|
E:--------------------|--0---------------------|--3---------------------|

    Bm    Bm/A  Bm         D                          F#
    q   e   q    e    H    e      e   e   e   e   e    e   e   e   e   q
e:---------------2-|----|--2h3p2----------2---------|--2-----------2-----|
B:--3---3--------3-|--3-|---------3-----------3-----|------2-----------2-|
G:--4---4---4------|--4-|-------------2-------------|--------------------|
D:-----------------|----|--0----------------------0-|----------4---------|
A:--2---2---0h2--2-|--2-|---------------------------|------------------4-|
E:-----------------|----|---------------------------|--2-----------------|
                  There is unrest        in      the forest        there is

   C#m                       A5                   E
    e   e   e   e   e   e    e   e   e   e   q    e   e   e   e   q
e:--------------4---------|--5-----------5-----|--0-----------0-----|
B:--5---------------5-----|------5-----------5-|--0-------0---------|
G:----------6-------------|----------2---------|------1-------------|
D:------6-----------------|------------------2-|------------------0-|
A:--4-------------------4-|--0-----------------|--------------------|
E:------------------------|--------------------|--0-----------------|
 trouble         with the trees          for the Maples     want  more

    G            A           Bm     Bm/A Bm         D
    e   e   e    e   e   e    q   e   q   e    H    e   e   e   e    e   e
e:--3----------------------|--------------2-|----|--2-----------3p2--------|
B:------3--------2---------|--3---3-------3-|--3-|----------3--------------|
G:-----------------------2-|--4---4---4-----|--4-|------2------------------|
D:-------------------2-----|----------------|----|--0-----------0----0---x-|
A:----------2----0---------|--2---2---0---2-|--2-|-------------------------|
E:--3----------------------|----------------|----|-------------------------|
  sunlight       and   the  Oaks ignore their pleas.

   F#                   C#m                       A5
    e   e   e   e   q    e   e   e   e   e   e    e   e   e   e   q
e:--2-----------2-----|--------------4---------|--5-----------5-----|
B:------2-----------2-|--5---------------5-----|------5-----------5-|
G:--------------------|----------6-------------|----------2---------|
D:----------4---------|------6-----------------|------------------2-|
A:------------------4-|--4-------------------4-|--0-----------------|
E:--2-----------------|------------------------|--------------------|

    E                        G           A            Bm    Bm/A Bm
    e   e   e   e   e   e    e   e   e   e   e   e    q   e   q   e    H
e:--------------0---------|--3---------------------|--------------2-|----|
B:--0-------0-------0-----|------3-------2---------|--3---3---3---3-|--3-|
G:------1-----------------|----------------------2-|--4---4---4-----|--4-|
D:----------------------0-|------------------2-----|----------------|----|
A:------------------------|----------2---0---------|--2---2---0h2-2-|--2-|
E:--0---------------------|--3---------------------|----------------|----|

      D                   A                   Bm
      q   q       q       q   q       q      w+w
e:----2---2h3p2--------|-----------------|---------|
B:----3-----------3----|--2---2h3p2------|----3----|
G:----2----------------|--2-----------2--|----4----|
D:----0----------------|--2--------------|----4----|
A:---------------------|--0--------------|----2----|
E:---------------------|-----------------|---------|

    F#
4/4  s   s   s   s   s   s   s   s   s   s   s   s   s   s   s   s
e:-------------------------------------------------------------------|
B:---2---------------------------------------------------------------|
G:---3---------------------------------------------------------------|
D:---4---4---4---4---4---4---4---4---4---4---4---4---4---4---4-------|
A:---4---4---4---4---4---4---4---4---4---4---4---4---4---4---4-------|
E:---2---2---2---2---2---2---2---2---2---2---2---2---2---2---2---0---|

     G5
     s   s   s   s   s   s   s   s   s   s   s   s   s   s   s   s
e:---3---------------------------------------------------------------|
B:---3---------------------------------------------------------------|
G:---4---------------------------------------------------------------|
D:---5---5---5---5---5---5---5---5---5---5---5---5---5---5---5---5---|
A:---5---5---5---5---5---5---5---5---5---5---5---5---5---5---5---5---|
E:---3---3---3---3---3---3---3---3---3---3---3---3---3---3---3---3---|

[Verse]:
      A5               B5                  G       D
e:----5------5-----------------------------3-------2------2----------|
B:----5------5-----------------------------3-------3------3----------|
G:----2------2---2-----4--4---4------------0-------2------2----------|
D:----2------2---2-----4--4---4------------0-------0------0----------|
A:----0------0---0-0---2--2---2------------2-------------------------|
E:-----------------------------------------3-------------------------|
The trouble with the Maples (and they're quite convinced they're right);

      A5                                   B5             G       D
e:----5---5---5---|-----5--------5------------------------3-------2--|
B:----5---5---5---|-----5--------5------------------------3-------3--|
G:----2---2---2---|-----2--------2----2----4--4---4-------0-------2--|
D:----2---2---2---|-----2--------2----2----4--4---4-------0-------0--|
A:----0---0---0---|-----0--------0----0-0--2--2---2-------2----------|
E:----------------|---------------------------------------3----------|
          They say the Oaks are just too lofty  and they grab up all

         A5                                    B5               G
e:--2----5---5---5---|----5---------5---------------------------3----|
B:--3----5---5---5---|----5---------5---------------------------3----|
G:--2----2---2---2---|----2---------2----2-----4---4-------4----0----|
D:--0----2---2---2---|----2---------2----2-----4---4-------4----0----|
A:-------0---0---0---|----0---------0----0-0---2---2-------2----2----|
E:-------------------|------------------------------------------3----|
   the light.   But the Oaks can't help their feelings if they like the

    D          A5                F#5
e:--2----2-----5----5--5--|------------------------------------------|
B:--3----3-----5----5--5--|------------------------------------------|
G:--2----2-----2----2--2--|------------------------------------------|
D:--0----0-----2----2--2--|-------4-----4--------4------4--4--4--4--4|
A:-------------0----0--0--|-------4-----4--------4------4--4--4--4--4|
E:------------------------|-0-0---2-----2--------2------2--2--2--2--2|
   way they're made,  and they  wonder why the Maples           can't

               G5                                           A5
e:---------|-------------------------------------------|----5--------|
B:---------|-----------------------------3--3-3-3------|----5--------|
G:---------|-----------------------------4--4-4-4------|----2--------|
D:--4--4---|---5-5---5---5-----5---5-5---5--5-5-5--5---|----2--------|
A:--4--4---|---5-5---5---5-----5---5-5---5--5-5-5--5---|----0--------|
E:--2--2---|---3-3---3---3-----3---3-3-------------3---|-------------|
     be       happy in their shade.

                                 A5/G      A5/F#  A5/E
                   6/8    e e e  e e e     e e e  e e e
e:-------5----------|-------------------|----------------------------|
B:-------5----------|-------------------|----------------------------|
G:--2-2--2-----2-2--|-----2-2-2--2-2-2--|--2-2-2--2-2-2--------------|
D:--2-2--2-----2-2--|-----2-2-2--2-2-2--|--2-2-2--2-2-2--------------|
A:--0-0--0-----0-0--|-----0-0-0--x-x-x--|--x-x-x--x-x-x--------------|
E:------------------|------------3-3-3--|--2-2-2--0-0-0--------------|
                                                    There is

     D                 F#                   C#m
     q  e  e  e  e     q     e  e  e  e      q     e  e  e  e
e:---2--2--2--2----|---2-----2--2--2--2-|----4-----4--4--4--4--------|
B:---3--3--3--3----|---2-----2--2--2--2-|----5-----5--5--5--5--------|
G:---2--2--2--2----|---3-----3--3--3--3-|----6-----6--6--6--6--------|
D:---0--0--0--0----|---4-----4--4--4--4-|----6-----6--6--6--6--------|
A:-----------------|---4-----4--4--4--4-|----4-----4--4--4--4--------|
E:---------------0-|---2-----2--2--2--2-|----------------------------|
   trouble  in  the  forest        and the creatures   all have

    A                    E                    G        A
    e  e  e  e  e  e     e  e  e  e  e  e     e  e  e  e  e  e
e:--5--5--5--5--5--5--|--0--0--0--0--0--0--|--3--3--3----------------|
B:--5--5--5--5--5--5--|--0--0--0--0--0--0--|--3--3--3--2--2--2-------|
G:--2--2--2--2--2--2--|--1--1--1--1--1--1--|--0--0--0--2--2--2-------|
D:--2--2--2--2--2--2--|--2--2--2--2--2--2--|--0--0--0--2--2--2-------|
A:--0--0--0--0--0--0--|--2--2--2--2--2--2--|--2--2--2--0--0--0-------|
E:--------------------|--0--0--0--0--0--0--|--3--3--3----------------|
   fled        As the   Maples  scream  op - pression    and the

     Bm       Bm/A  Bm                              D
     q     e  e  e  e    Q                          q  e  e  e  e
e:------------------2--|----------------------|-----2--2--2--2-------|
B:---3-----3--3--3--3--|-3--------------------|-----3--3--3--3-------|
G:---4-----4--4--4--4--|-4--------------------|-----2--2--2--2-------|
D:---4-----4--4--4--4--|-4--------------------|-----0--0--0--0-------|
A:---2-----2--0--0-----|-2----------x---x/---|----------------------|
E:---------------------|------------x---x/---|-----------------0----|
    Oaks  just shake their heads.

     F#                    C#m                     A
     q     e  e  e          q     e  e  e  e       q     e  e  e  e
e:---2-----2--2--2-----|----4-----4--4--4--4----|--5-----5--5--5--5--|
B:---2-----2--2--2-----|----5-----5--5--5--5----|--5-----5--5--5--5--|
G:---3-----3--3--3-----|----6-----6--6--6--6----|--2-----2--2--2--2--|
D:---4-----4--4--4-----|----6-----6--6--6--6----|--2-----2--2--2--2--|
A:---4-----4--4--4-----|----4-----4--4--4--4----|--0-----0--0--0--0--|
E:---2-----2--2--2-----|------------------------|--------------------|

     E                    G        A               Bm       Bm/A  Bm
     e  e  e  e  e  e     e  e  e  e  e  e         q     e  e  e  e
e:---0--0--0--0--0--0--|--3--3--3---------------|-----------------2--|
B:---0--0--0--0--0--0--|--3--3--3--2--2--2------|--3-----3--3--3--3--|
G:---1--1--1--1--1--1--|--0--0--0--2--2--2------|--4-----4--4--4--4--|
D:---2--2--2--2--2--2--|--0--0--0--2--2--2------|--4-----4--4--4--4--|
A:---2--2--2--2--2--2--|--2--2--2--0--0--0------|--2-----2--0--0-----|
E:---0--0--0--0--0--0--|--3--3--3---------------|--------------------|

      H         e  e  e     H+
e:---------|-------------------------|
B:----3----|----3--3--3-----3--------|
G:----4----|----4--4--4-----4--------|
D:----4----|----4--4--4-----4--------|
A:----2----|----2--2--2-----2--------|
E:---------|-------------------------|

[Interlude]:
     Bm                                                 A
4/4  e  e  e  e     e  e  e     e  e  e  e  e  e  q     e  e  e  e  e
e:---------------------------|-----------------------|---------------|
B:---------------r-----------|-----------------------|-----------2---|
G:------4-----4--e-----4-----|-----4-----4--------4--|--------2-----2|
D:---------4-----s--4-----4--|--------4--------4-----|-----2---------|
A:---2-----------r-----------|--2-----------2--------|--0------------|
E:---------------------------|-----------------------|---------------|

                                      F#7addB
    e  e  e     e  e  e  e  e  e  q    e  e  e  q  Q   e  e  e  q  Q
e:-----------|-----------------------|---------------|---------------|
B:--2--------|-----------2-----------|----------0----|----------0----|
G:--------2--|--------2--------2-----|-------------3-|-------------3-|
D:-----2-----|-----2--------2--------|-------4-------|-------4-------|
A:-----------|--0-----------------0--|----4----------|----4----------|
E:-----------|-----------------------|-2-------------|-2-------------|

  Aadd9                                    F#7addB
    e  e  e  q  q  e     e  e  e  q  Q      e  e  e  e  e  e  e  q
e:-----------0--------|-----------0------|-----------0-----2---------|
B:--------------0-----|--------------0---|-----------------------0---|
G:--------6--------6--|--------6---------|--------3------------------|
D:--------------------|-----7------------|--------------4-----4------|
A:-----7--------------|--7---------------|-----4---------------------|
E:--5-----------------|------------------|--2------------------------|

                          D
    e  e  e  e  e  Q      e  e  e  q  q   e      e  e  e  q  q   e
e:-----------0-----2---|-----------0--10------|-----------0--10------|
B:---------------------|--------7---------7---|--------7---------7---|
G:-----3---------------|-----7----------------|-----7----------------|
D:--4-----4-----4------|--0-------------------|--0-------------------|
A:---------------------|----------------------|----------------------|
E:---------------------|----------------------|----------------------|

    F                                       Aadd9
    e  e  e  q  e  e  e     e  e  e  q  Q     e  e  e  e  e  e  e  e
e:-----------1-----------|-----------1-----|--0--------0-------------|
B:--------------1--------|--------------1--|--0----------------------|
G:--------2-----------2--|--------2--------|--6-----6--------6-------|
D:-----------------3-----|-----------------|--7--7--------7--------7-|
A:-----3-----------------|-----3-----------|--7-----------------7----|
E:--1--------------------|--1--------------|--5----------------------|

                            E
    e  e  e  e  e  e  q     e  e  e  e  e  e  e  e    e  e  e  q  Q
e:-----------0-----------|-----------0-------------|-----------0-----|
B:-----------------------|-----------------0-------|--------------0--|
G:--------6--------6-----|--------1--------------1-|--------1--------|
D:--------------7--------|-----2--------2-----2----|-----2-----------|
A:-----7-----------------|-------------------------|-----------------|
E:--5-----------------5--|--0----------------------|--0--------------|

[Pre-solo]:
5/4 e  e  e  e   e  e   e  e  e   e   e   e  e  e   e  e   e   e  e   e
e:----------------------------------|-----------------------------------|
B:--------0----------------0--------|--------0--------------------------|
G:-----0---------0------0---------0-|-----0---------0----------0------0-|
D:-12--------11-----14--------11----|-12--------11-----12--14-----11----|
A:----------------------------------|-----------------------------------|
E:----------------------------------|-----------------------------------|

  A5
    e  e  e  e   e  e   e  e  e   e   e   e  e  e   e  e   e   e  e   e
e:----------------------------------|-----------------------------------|
B:--------0----------------0--------|--------0--------------------------|G
G:-----0---------0------0---------0-|-----0---------0----------0------0-|T
D:-12--------11-----14--------11----|-12--------11-----12--14-----11----|R
A:----------------------------------|-----------------------------------|
E:----------------------------------|-----------------------------------|
 | w+w                              |                                   |
e:----------------------------------|-----------------------------------|S
B:----------------------------------|-----------------------------------|Y
G:----------------------------------|-----------------------------------|N
D:-7--------------------------------|-----------------------------------|T
A:-7--------------------------------|-----------------------------------|H
E:-5--------------------------------|-----------------------------------|

   A5
    e  e  e  e   e  e   e  e  e   e   e   e  e  e   e  e   e   e  e   e
e:----------------------------------|-----------------------------------|
B:--------0----------------0--------|--------0--------------------------|
G:-----0---------0------0---------0-|-----0---------0----------0------0-|
D:-12--------11-----14--------11----|-12--------11-----12--14-----11----|
A:----------------------------------|-----------------------------------|
E:----------------------------------|-----------------------------------|
 | w+w                              |                                   |
e:----------------------------------|-----------------------------------|
B:----------------------------------|-----------------------------------|
G:----------------------------------|-----------------------------------|
D:-7--------------------------------|-----------------------------------|
A:-7--------------------------------|-----------------------------------|
E:-5--------------------------------|-----------------------------------|

   A5
    e  e  e  e   e  e   e  e  e   e   e   e  e  e   e  e   e   e  e   e
e:----------------------------------|-----------------------------------|
B:--------0----------------0--------|--------0--------------------------|
G:-----0---------0------0---------0-|-----0---------0----------0------0-|
D:-12--------11-----14--------11----|-12--------11-----12--14-----11----|
A:----------------------------------|-----------------------------------|
E:----------------------------------|-----------------------------------|
 | w+w                              |                                   |
e:----------------------------------|-----------------------------------|
B:----------------------------------|-----------------------------------|
G:----------------------------------|-----------------------------------|
D:-7--------------------------------|-----------------------------------|
A:-7--------------------------------|-----------------------------------|
E:-5--------------------------------|-----------------------------------|

    A5                                 B5
     e  e  e  e   e  e   e  e  e   e   e   e  e  e   e  e   e   e  e   e
e:-----------------------------------|-----------------------------------|
B:---------0----------------0--------|--------0--------------------------|
G:o-----0---------0------0---------0-|-----0---------0----------0------0-|
D:o-12--------11-----14--------11----|-12--------11-----12--14-----11----|
A:-----------------------------------|-----------------------------------|
E:-----------------------------------|-----------------------------------|
 |  w                                | w                                 |
e:-----------------------------------|-----------------------------------|
B:-----------------------------------|-----------------------------------|
G:-----------------------------------|-----------------------------------|
D:--7--------------------------------|-9---------------------------------|
A:--7--------------------------------|-9---------------------------------|
E:--5--------------------------------|-7---------------------------------|

    A5                                 D5
    e  e  e  e   e  e   e  e  e   e   e   e  e  e   e  e   e   e  e   e
e:----------------------------------|------------------------------------|
B:--------0----------------0--------|--------0---------------------------|
G:-----0---------0------0---------0-|-----0---------0----------0------0-o|
D:-12--------11-----14--------11----|-12--------11-----12--14-----11----o|
A:----------------------------------|------------------------------------|
E:----------------------------------|------------------------------------|
 | w                                | w                                  |
e:----------------------------------|------------------------------------|
B:----------------------------------|------------------------------------|
G:----------------------------------|-7---------------------------------o|
D:-7--------------------------------|-7---------------------------------o|
A:-7--------------------------------|-5----------------------------------|
E:-5--------------------------------|------------------------------------|

    e   e  e  e   e  e   e  e  e   e   e   e  e  e   e  e   e   e  e   e
e:-----------------------------------|------------------------------------|
B:---------0----------------0--------|--------0---------------------------|
G:o-----0---------0------0---------0-|-----0---------0----------0------0-o|
D:o-12--------11-----14--------11----|-12--------11-----12--14-----11----o|
A:-----------------------------------|------------------------------------|
E:-----------------------------------|------------------------------------|

    e   e  e  e   e  e   e  e  e   e   e   e  e  e   e  e   e   e  e   e
e:-----------------------------------|------------------------------------|
B:---------0----------------0--------|--------0---------------------------|
G:o-----0---------0------0---------0-|-----0---------0----------0------0-o|
D:o-12--------11-----14--------11----|-12--------11-----12--14-----11----o|
A:-----------------------------------|------------------------------------|
E:-----------------------------------|------------------------------------|

[Guitar Solo]:
e:----------------------------------|-----------------------------------|
B:----------------------------------|-----------------------------------|L
G:-(16)r14--------------------------|--------------------------7-6h7p6p0|E
D:----------------------------------|-----------------------------------|A
A:----------------------0-----------|--2--------------------------------|D
E:----------------------------------|-----------------------------------|
 |                                  |                                   |
e:----------------------------------|-----------------------------------|R
B:--------0----------------0--------|--------0--------------------------|H
G:-----0---------0------0---------0-|-----0---------0----------0------0-|Y
D:-12--------11-----14--------11----|-12--------11-----12--14-----11----|T
A:----------------------------------|-----------------------------------|H
E:----------------------------------|-----------------------------------|M

e:----------------------------------|-----------------------------------|
B:----------------------------------|------------------------15-14h15p14|
G:-0------2--[4]-----------4-2h4p2p0|-[9]-------------------------------|
D:----------------------------------|-----------------------------------|
A:----------------------------------|-----------------------------------|
E:----------------------------------|-----------------------------------|
 |                                  |                                   |
e:----------------------------------|-----------------------------------|
B:--------0----------------0--------|--------0--------------------------|
G:-----0---------0------0---------0-|-----0---------0----------0------0-|
D:-12--------11-----14--------11----|-12--------11-----12--14-----11----|
A:----------------------------------|-----------------------------------|
E:----------------------------------|-----------------------------------|

e:------------------------------------------|
B:------------------12----------------------|
G:-14-12-14------12-----14--12-14b16-14b16--|
D:------------------------------------------|
A:------------------------------------------|
E:------------------------------------------|
 |                                          |
e:------------------------------------------|
B:---------------0----------------0---------|
G:------------0---------0------0---------0--|
D:--------12--------11-----14--------11-----|
A:------------------------------------------|
E:------------------------------------------|

e:-----------------------------------|----------------------------------|
B:-----------------------------------|----------------------------------|
G:-14--------11-12b14----12-11h12p11s9-11---------6--7--9---7-6h7p6-4-6-|
D:-----------------------------------|----------------------------------|
A:-----------------------------------|----------------------------------|
E:-----------------------------------|----------------------------------|
 |                                   |                                  |
e:-----------------------------------|----------------------------------|
B:--------0--------------------------|--------0----------------0--------|
G:-----0---------0----------0------0-|-----0---------0------0---------0-|
D:-12--------11-----12--14-----11----|-12--------11-----14--------11----|
A:-----------------------------------|----------------------------------|
E:-----------------------------------|----------------------------------|

6/4
e:----------------------------------------------------------------------|
B:----------------------------------------------------------------------|
G:-7-------6h7h9----4h6p4----2-4p2p0--2-4p2p0--2-4p2p0-2----------------|
D:----------------------------------------------------------------------|
A:----------------------------------------------------------------------|
E:----------------------------------------------------------------------|
 |                                                                      |
e:----------------------------------------------------------------------|
B:-----------0----------------------------------------------------------|
G:-------0------------0-------------0--------0--------0-----------------|
D:--12-----------11-------12---14-------11-------12---------------------|
A:----------------------------------------------------------------------|
E:----------------------------------------------------------------------|

    G                             D               A
e:--7--7---7--7-----7--7---7--7--2--2--2--2--2----------------------|
B:--8--8---8--8-----8--8---8--8--3--3--3--3--3---2------------------|
G:--7--7---7--7-----7--7---7--7--2--2--2--2--2---2--2---------------|
D:--0------0--------0-------------0-----0-----0---2--2--------0-2-4p0|
A:------------------------------------------------0--0---2--4--------|
E:-------------------------------------------------------------------|
                                                       PM----------|

e:--7--7--7--7-----7--7---7--7--2--2--2--2--2-----------------------|
B:--8--8--8--8-----8--8---8--8--3--3--3--3--3---2-------------------|
G:--7--7--7--7-----7--7---7--7--2--2--2--2--2---2--2---4--2--0------|
D:--0-----0--------0-------------0-----0-----0---2--2-----------4p2p0|
A:-----------------------------------------------0--0----------------|
E:-------------------------------------------------------------------|

e:--7--7--7--7-----7--7---7--7--2--2--2--2--2-----------------------|
B:--8--8--8--8-----8--8---8--8--3--3--3--3--3--2------8--7--5-------|
G:--7--7--7--7-----7--7---7--7--2--2--2--2--2--2--2-----------7--6--|
D:--0-----0--------0-------------0-----0-----0--2--2-----------------|
A:----------------------------------------------0--0-----------------|
E:-------------------------------------------------------------------|
                                                     PM------------|

e:-7--7--7--7-----7--7---7--7--2--2--2--2--2------------------------|
B:-8--8--8--8-----8--8---8--8--3--3--3--3--3--2---------------------|
G:-7--7--7--7-----7--7---7--7--2--2--2--2--2--2--2------------------|
D:-0-----0--------0-------------0-----0-----0--2--2--------0--2------|
A:---------------------------------------------0--0--2--4--------0---|
E:-------------------------------------------------------------------|

    Bm    B5 Bm/A  D5          A5      B5          F#
5/4 e  e   e   q   e   e   e   e   e   e   e   e   q   q   e   e   e
e:-----------------------------------|-------------------------------|
B:-3---3-----------3---3---3---------|-------------------------------|
G:-4---4---4---4---2---2---2---2---2-|-4---4---4---3---3---3---2---2-|
D:-4---4---4---4---0---0---0---2---2-|-4---4---4---4---4---4---2---2-|
A:-2---2---2---0---------------0---0-|-2---2---2---4---4---4---0---0-|
E:-----------------------------------|-------------2---2---2---------|

[Verse]:
4/4   A5               B5                  G       D
e:----5------5-----------------------------3-------2------2----------|
B:----5------5-----------------------------3-------3------3----------|
G:----2------2---2-----4--4---4------------0-------2------2----------|
D:----2------2---2-----4--4---4------------0-------0------0----------|
A:----0------0---0-0---2--2---2------------2-------------------------|
E:-----------------------------------------3-------------------------|
So the Maples formed a union    and de - manded equal

      A5                                   B5             G       D
e:----5---5---5---|-----5--------5------------------------3-------2--|
B:----5---5---5---|-----5--------5------------------------3-------3--|
G:----2---2---2---|-----2--------2----2----4--4---4-------0-------2--|
D:----2---2---2---|-----2--------2----2----4--4---4-------0-------0--|
A:----0---0---0---|-----0--------0----0-0--2--2---2-------2----------|
E:----------------|---------------------------------------3----------|
    rights.       The Oaks are just too  greedy   we will make them

         A5                                    B5               G
e:--2----5---5---5---|----5---------5---------------------------3----|
B:--3----5---5---5---|----5---------5---------------------------3----|
G:--2----2---2---2---|----2---------2----2-----4---4-------4----0----|
D:--0----2---2---2---|----2---------2----2-----4---4-------4----0----|
A:-------0---0---0---|----0---------0----0-0---2---2-------2----2----|
E:-------------------|------------------------------------------3----|
give us light! Now there's no more Oak op - pression  for they passed

    D          A5
e:--2----2-----5----5--5--|
B:--3----3-----5----5--5--|
G:--2----2-----2----2--2--|
D:--0----0-----2----2--2--|
A:-------------0----0--0--|
E:------------------------|
 a  noble   law.      And the

    F#
     s   s   s   s   s   s   s   s   s   s   s   s   s   s   s   s
e:-------------------------------------------------------------------|
B:---2---------------------------------------------------------------|
G:---3---------------------------------------------------------------|
D:---4---4---4---4---4---4---4---4---4---4---4---4---4---4---4-------|
A:---4---4---4---4---4---4---4---4---4---4---4---4---4---4---4-------|
E:---2---2---2---2---2---2---2---2---2---2---2---2---2---2---2---0---|
 trees      are     all     kept     e  -  qual.             by

     G5
     s   s   s   s   s   s   s   s   s   s   s   s   s   s   s   s
e:---3---------------------------------------------------------------|
B:---3--------------------------------------------------------------0|
G:---4-----------------------------------------------------------6--6|
D:---5---5---5---5---5---5---5---5---5---5---5---5---5---5---5---7--7|
A:---5---5---5---5---5---5---5---5---5---5---5---5---5---5---5---7--7|
E:---3---3---3---3---3---3---3---3---3---3---3---3---3---3---3---5--5|
  hatchet,                          axe                        and saw.
exibições 17.304
Acordes para:

    0 comentários

    mostrar mais comentários

    Conseguiu tocar?

    0 tocaram 0 ainda não

    Grave um vídeo tocando The Trees e mande pra gente!

    00:00 / 00:00
    outros vídeos desta música
    repetir qualidade Automático
    Outros vídeos desta música
    00:00 / 00:00
    Automático
    OK