Cifra Club

Time Stand Still

Rush

Cifra: Principal (violão e guitarra)
Tom: E
-------------------|-0--0-|-------|-0--0-|-------|-0--0-----------------------
-----0-----0-------|-0--0-|-------|-0--0-|-------|-0--0--0--------------------
---------4---------|-2--2-|-------|-2--2-|-------|-2--2--6-------------6------
---4---2-------2---|-2--2-|-------|-2--2-|-------|-2--2--6-------------6------
-2-----------4---0-|-0--0-|-------|-0--0-|-------|-0--0--4---------4-4---4-4--
-------------------|-x--x-|-------|-x--x-|-------|-x--x--x--------------------
 Riff-A                     Riff-A         Riff-A  Rhy.1           x x   x x

------------------------------------|----0---0------------------------------|-
---------------2--------------------|----0---0------------------------------|-
-6-----6\------2------4-----4-----2-|----4---4----------------------8-----8-|-
-6-----6\------2------4-----4-----2-|----2---2----------------------9-----9-|-
---4-4------0---------2-2-2-2-2-2---|----2---2---------0-2-4--------9-----9-|-
------------------------------------|-0--0---0---0-2-4-------2/-7---7-7-7-7-|-
   x x                  x x   x x     Rhy.2                           x x

-----------------------------------0-----0------0-----0-----------------------
--0-----0-----0---------0--------0----0--0--------0-------0-------2-----------
--9p8---9-----8-------6------------------6----------6--------6----2------4----
--9-----9-----9-----7----------7---------6------------------------2------4----
--7---7-7---7-7--------------------------4---------------------0---------2-2--
------------------5----------5-----------x------------------------------------
      x     x                                                              x

-----------|------------|------------------0------0------|------------------|-
-----------|------------|-0-----0-----0----0------0------|------------------|-
---4-----2-|------------|-9p8---9-----8----6------8------|------------------|-
---4-----2-|------------|-9-----9-----9----7------9------|------------------|-
-2-2-2-2-0-|------------|-7---7-7---7-7----7------9------|------------------|-
-----------|------------|------------------5------7------|------------------|-
 x   x x     Play Rhy.2       x     x                      La...la,la,la...

-------------------|------------------|-------|-0--0-|-------|-0--0--|--------
-------------------|------------------|-------|-0--0-|-------|-0--0--|--------
-------------------|------------------|-------|-2--2-|-------|-2--2--|--------
-------------------|------------------|-------|-2--2-|-------|-2--2--|--------
-------------------|------------------|-------|-0--0-|-------|-0--0--|--------
-------------------|------------------|-------|-x--x-|-------|-x--x--|--------
 Time...            Time...             Riff-A         Riff-A

----------0--------0--------0-----0-------0--------2--------0------|-2--2-----
-0--------0--------0----------0------0----0--------2--------0------|-3--3-----
-4--------6--------8------------8---------6--------2------4-4------|-2--2-----
-2--------7--------9----------------------7--------4------2-2------|-0--0-----
-2--------7--------9----------------------7--------4------2-2------|-x--x-----
----------5--------7----------------------5--------2---------------|-x--x-----
 Rhy.3                                                    u d

---x--x---------0----------------2--------x--------|------------|-0--0------|-
---2--2---------0----------------3--------2--------|------------|-2--2--0---|-
---2--2----4-4--4----------------2--------2--------|------------|-2--2--4---|-
---2--2----2-2-------2--2--------0--------2--------|------------|-2--2--4---|-
---0--0----2-2-------2--2--------x--------0--------|------------|-0--0--2---|-
---x--x------0-------0--0--------x--------x--------|------------|-x--x--x---|-
                                                     Play Riff-A

-----------|-----------|--------------------0------0-----0--------------------
-----------|-----------|-0-----0-----0------0--------0-------0-------2--------
-----------|-----------|-9p8---9p8---9\-----6----------6--------6----2--------
-----------|-----------|-9-----9-----9\-----6------------------------2--------
-----------|-----------|-7---7-7---7-7\-----4---------------------0-----------
-----------|-----------|--------------------x---------------------------------
 Play Rhy.1  Play Rhy.2

--------------|-----------|------------------0------0------|------------------
--0-----------|-----------|-0-----0-----0----0------0------|------------------
--4---2-------|-----------|-9-----9-----8----6------8------|------------------
---------2----|-----------|-9-----9-----9----7------9------|------------------
--------------|-----------|-7-7-7-7-7-7-7----7------9------|------------------
------------3p|-----------|------------------5------7------|------------------
                Play Rhy.2                                   Time...Time...

--|------------|------|-----------|-----------------------|-------------------
--|------------|-0--0-|-----------|-----------------------|-------------------
--|------------|-4--4-|-----------|-----------------------|-------------------
--|------------|-2--2-|-----------|-----------------------|-------------------
--|------------|-0--0-|-----------|-----------------------|-------------------
--|------------|------|-----------|---0-0-0-0-0-0-0-0-0-0-|-------------------
    Play Riff-A         Play Rhy.3     W/Bass Riff

-0--------0--------0--------------0------0--------2--------0--------|---------
-0--------0--------0-----------------7---0--------2--------0--------|---------
-4--------6--------8------------8--------6--------2--------4--------|---------
-2--------7--------9----------9----------7--------4--------2--------|---------
-2--------7--------9--------9------------7--------4--------2--------|---------
----------5--------7---------------------5--------2--------0--------|---------
 Rhy.4

-2--------x--------0----------------2--------x--------|------------|-0--0-|---
-3--------2--------0----------------3--------2--------|------------|-0--0-|---
-2------2-2-2------4----------------2--------2--------|------------|-2--2-|---
-0------0-2-2------2----------------0--------2--------|------------|-2--2-|---
-x------x-0-0------2--------2--2----x--------0--------|------------|-0--0-|---
-x--------x-x------0--------0--0----x--------x--------|------------|-x--x-|---
                                                        Play Riff-A

------------|-0--0-|---------0---------0---------|-------0----------0----|----
------------|-0--0-|---0-------------------------|-----0----------0------|----
------------|-2--2-|-----6-----8---9-----8-6---6-|---6----------6--------|----
------------|-2--2-|-9-----------------------9---|-9----------9----------|----
------------|-0--0-|-----------------------------|-----------------------|----
------------|-x--x-|-----------------------------|-----------------------|----
 Play Riff-A         Riff-B Play 10x

-----------------|--------------|---------0-----0-----|----------|----------|-
-----------------|--------------|---0-------------7---|----------|----------|-
-----------------|--------------|-----6-----8---------|----------|----------|-
-----------------|--------------|-9-------------------|----------|----------|-
-----------------|--------------|---------------------|----------|----------|-
-----------------|--------------|---------------------|----------|----------|-
 La...la,la,la... Play Riff-B 3x                       Play Rhy.3 Play Rhy.4

-----------------2--2-----x--x-----0--0--------------2--------x--------0--0---
-----------------3--3-----2--2-----0--0--------------3--------2--------0--0---
-----------------2--2-----2--2-----4--4-----4--4-----2--------2--------4--4---
-----------------0--0-----2--2-----2--2-----2--2-----0--------2--------2--2---
-----------------x--x-----0--0-----2--2-----2--2-----x--------0--------2--2---
-0-0-0-0-0-0-0-0-x--x-----x--x-----0--0-----0--0-----x--------x--------0--0---
  w/Bass Riff

-----0--0--------|-------------------|------------|---------------------------
-----0--0--------|-3--------2--------|------------|-0--0----------------------
-----4--4--------|-2--------2--------|------------|-4--4--4-------------------
-----2--2--------|-0--------2--------|------------|-2--2--4-------------------
-----2--2--------|-x--------0--------|------------|-2--2--2-------------------
-----0--0--------|-x-----------------|------------|---------------------------
                                       Play Riff-A        Ring out       End
exibições 15.025
Acordes para:

    0 comentários

    mostrar mais comentários

    Conseguiu tocar?

    0 tocaram 1 ainda não

    Grave um vídeo tocando Time Stand Still e mande pra gente!

    00:00 / 00:00
    outros vídeos desta música
    repetir qualidade Automático
    Outros vídeos desta música
    00:00 / 00:00
    Automático
    OK