Cifra Club

Tom Sawyer

Rush

Cifra: Principal (violão e guitarra)
Tom: A
Primeira Parte:


A modern-day warrior

Mean, mean stride

Today's Tom Sawyer
                 E  D7  A7(11)  C5
Mean, mean pride

E
  Though his mind is not for rent
D7
   Don't put him down as arrogant
A7(11)
       His reserve, a quiet defense
C5
   Riding out the day's events
C9  G/B  A4(7)   C9  G/B  A4(7)
               The  ri___ver

E  D7  A7(11)  ( C9  G/B  A4(7)  C9  G/B  A4(7) )

Segunda Parte:

(Riff 1)

E|----------------------------------------------------|
B|----------------------------------------------------|
G|-----4------4-------4------4-------4------4---------|
D|---2------2---2---2------2---2---2------2---2-------|
A|----------------------0--------------3--------------|
E|-0-----2--------3--------------0--------------------|

E|----------------------------------------------------|
B|----------------------------------------------------|
G|-----4----------------------------------------------|
D|---2------2---2-------------------------------------|
A|-2-----0--------------------------------------------|
E|------------3---------------------------------------|

What you say about his company
Is what you say about society
Catch the mist, catch the myth
Catch the mystery, catch the drift


Terceira Parte:

B5
   The world is, the world is
 A        G/A      B5
Love and life are deep
 A             G/A  A    E5
Maybe as his skies  are wide


Quarta Parte:

Today's Tom Sawyer
He gets high on you
And the space he invades
He gets by on you

( E5  F#5  E5  F#5 ) (2x)

   E5       F#5      E5       F#5
E|------------------------------------------|
B|------------------------------------------|
G|------------------------------------------|
D|-----2---------4-------2---------4--------|
A|---2---------4-------2--------4-----------|
E|-0------0-2--------0------0-2-------------|


(Riff 2)

E|------------------------------------------|
B|------------------------------------------|
G|------------------------------------------|
D|-7-4-6---4------7--4-6--------------------|
A|-------7---5~----------7-5----------------|
E|---------------------------7--------------|


Solo:

E|----------------------------------------------------|
B|-------------9p7h9h10-9-7h9p7\3h5~--10p9h10-12\-----|
G|-1/4~/7~~-------------------------------------------|
D|----------------------------------------------------|
A|----------------------------------------------------|
E|----------------------------------------------------|

E|----------------------------------------------------|
B|----------------------------------------------------|
G|-----------9b----6h7p6p4h6b~-7b~~-------------------|
D|----------------------------------------------------|
A|-------5--------------------------------------------|
E|-5--7-----------------------------------------------|

E|----------------------------------------------------|
B|-5-7p5---5------------------------------------------|
G|-------7---6-7-6h7p6p4-6-7-9\-----------------------|
D|----------------------------------------------------|
A|----------------------------------------------------|
E|----------------------------------------------------|

E|-12-9h10p9----9--12-9~~--10----------9--12-9~-------|
B|-----------10---------------12p10-12----------------|
G|----------------------------------------------------|
D|----------------------------------------------------|
A|----------------------------------------------------|
E|----------------------------------------------------|

E|-12p9-----------------------------16b18~------------|
B|------10~/--12~/--15b17r15--17~~--------------------|
G|----------------------------------------------------|
D|----------------------------------------------------|
A|----------------------------------------------------|
E|----------------------------------------------------|

E|-16-17-19-17-16-17-19-17-16-17-19-17-16-17----------|
B|----------------------------------------------------|
G|----------------------------------------------------|
D|----------------------------------------------------|
A|----------------------------------------------------|
E|----------------------------------------------------|

E|-19b21-19b21-19b21...-------------------------------|
B|----------------------------------------------------|
G|----------------------------------------------------|
D|----------------------------------------------------|
A|----------------------------------------------------|
E|----------------------------------------------------|

E|----------------------------------------------------|
B|----------------------------------------------------|
G|----------------------------------------------------|
D|-7-4-6---4------7--4-6------------------------------|
A|-------7---5~----------7-5--------------------------|
E|---------------------------7------------------------|

E|----------------------------------------------------|
B|----------------------------------------------------|
G|----------------------------------------------------|
D|-7-4-6---4------------------------------------------|
A|-------7---5~--------5--7\--------------------------|
E|---------------5--7---------------------------------|


Quinta Parte:

( E  D7  A7(11)  C9 )

E
  No, his mind is not for rent
D7
   To any god or government
A7(11)
       Always hopeful, yet discontent
C5                               C9  G/B  A4(7)
   He knows changes aren't permanent
 C9   G/B  A4(7)
But change is

E  D7  A7(11)  ( C9  G/B  A4(7)  C9  G/B  A4(7) )


Sexta Parte:

(Riff 1)

What you say about his company
Is what you say about society
Catch the witness, catch the wit
Catch the spirit, catch the spit


Sétima Parte:

B5
   The world is, the world is
 A        G/A      B5
Love and life are deep
 A             G/A  A    E5
Maybe as his skies  are wide


Oitava Parte:

Exit the warrior
Today's Tom Sawyer
He gets high on you
And the energy you trade
He gets right on to the friction of the day

( E5  F#5  E5  F#5 )

   E5       F#5      E5       F#5
E|------------------------------------------|
B|------------------------------------------|
G|------------------------------------------|
D|-----2---------4-------2---------4--------|
A|---2---------4-------2--------4-----------|
E|-0------0-2--------0------0-2-------------|


( E5  F#5  E5  F#5 )

   E5       F#5      E5       F#5
E|------------------------------------------|
B|------------------------------------------|
G|------------------------------------------|
D|-----2---------4-------2----------4-------|
A|---2---------4-------2---------4----------|
E|-0------0-2--------0------0-2-------------|


( E5  F#5  E5  F#5  E5  F#5  E5  F#5 )

   E5       F#5      E5       F#5
E|------------------------------------------|
B|------------------------------------------|
G|------------------------------------------|
D|-----2---------4-------2---------4--------|
A|---2---------4-------2---------4----------|
E|-0------0-2--------0------0-2-------------|


( E5  F#5 )

   E5       F#5      E5       F#5
E|------------------------------------------|
B|------------------------------------------|
G|------------------------------------------|
D|-----2----------4-------------------------|
A|---2---------4----------------------------|
E|-0------0-2-------------------------------|


( E5  F#5  E5  F#5  E5  F#5  E5  F#5 )

   E5       F#5      E5       F#5
E|------------------------------------------|
B|------------------------------------------|
G|------------------------------------------|
D|-----2---------4-------2---------4--------|
A|---2---------4-------2---------4----------|
E|-0------0-2--------0------0-2-------------|


( E5  F#5 )

   E5       F#5      E5       F#5
E|------------------------------------------|
B|------------------------------------------|
G|------------------------------------------|
D|-----2----------4-------------------------|
A|---2---------4----------------------------|
E|-0------0-2-------------------------------|
exibições 101.581
Acordes para:

    0 comentários

    mostrar mais comentários

    Conseguiu tocar?

    8 tocaram 1 ainda não

    Grave um vídeo tocando Tom Sawyer e mande pra gente!

    00:00 / 00:00
    outros vídeos desta música
    repetir qualidade Automático
    Outros vídeos desta música
    00:00 / 00:00
    Automático
    Capítulos
    • Tocando a música
    • Dicas iniciais / Equipamentos
    • Timbragem do Amplificador
    • Dicas Primeira Parte
    • Acordes da Primeira Parte
    • Tocando Primeira Parte
    • Ensinando Primeira Parte
    • Dicas Segunda Parte
    • Tocando Segunda Parte
    • Ensinando Segunda Parte e Riff 1
    • Acordes da Terceira Parte
    • Tocando Terceira Parte
    • Ensinando Terceira Parte e Riff 1
    • Dicas Quarta Parte
    • Acordes Quarta Parte
    • Tocando Quarta Parte
    • Ensinando Quarta Parte e Riff 2
    • Dicas do Solo
    • Tocando Solo
    • Ensinando Solo
    • Dicas Quinta a Sétima Parte
    • Tocando Quinta a Sétima Parte
    • Dicas Oitava Parte
    • Tocando Oitava Parte
    • Ensinando Oitava Parte
    • Encerramento
    • Ficha técnica / Erros de Gravação
    OK