Cifra Club

Aprenda

Tom Sawyer

Rush

Tab de baixo: Principal
Intro/Primeira parte

Parte 1

G|--------------------------------------------|
D|--------------------------------------------|
A|--------------------------------------------|
E|-0------------------------------------------|

Parte 2

A modern-day warrior mean, mean stride... 

G|--------------------------------------------|
D|--------------------------7--------10-------|
A|--------7--------5--------------------------|
E|-0-0--0---0-0--0---0-0--0---0-0--0----------|

Parte 3

G|--------------------------------------------|
D|--------------------------7--------10-------|
A|--------7--------5--------------------------|
E|-0-0--0---0-0--0---0-0--0---0-0--0----------|

Parte 4

G|--------------------------------------------|
D|-10-9-7--10-9-7-----------------------------|
A|--------------------------------------------|
E|--------------------------------------------|

Parte 5

G|-----------------------------7---7---7---7--|
D|---------------4h5-4------------------------|
A|--------7------------5-5--5----5---5---5----|
E|-0-0--0----0-0------------------------------|

Parte 6

G|--------------------------------------------|
D|--------7---7---7---7--10-9-7-5-5-4---------|
A|------------------------------------7-------|
E|-5-5--5---5---5---5-------------------------|

Segunda parte

Parte 1

G|--------------------------------------------|
D|--------------------2-----------------------|
A|------------0-0---0---3--2-3-2-0------------|
E|-0-2--0-2-3-----3----------------3-2--------|

Parte 2

What you say about his company... 

G|--------------------------------------------|
D|----------2---------------------------------|
A|--------0---3-2-0---------------------------|
E|-0-2--3-----------3-------------------------|

Parte 3

G|--------------------------------------------|
D|----------2---------------------------------|
A|--------0---3-2-0---------------------------|
E|-0-2--3-----------3-2-----------------------|

Parte 4

G|--------------------------------------------|
D|--------------------2-----------------------|
A|------------0-0---0----3--2-3-2-0-2-0-------|
E|-0-2--0-2-3-----3---------------------------|

Terceira parte

The world is, the world is...are wide. 

G|-----4--------------------------------------|
D|-----4--------------------------------------|
A|-0-2-2-----2--------------------------------|
E|-------5-3---5-3-5-0------------------------|

Quarta parte

Today's Tom sawyer,he gets high on you... 

Parte 1

G|--------------------------------------------|
D|-2-4--2-4--2-4--2-4-------------------------|
A|--------------------0-----------------------|
E|--------------------------------------------|

Parte 2 ( tocar 3x )

G|--------------------------------------------|
D|-7---6-------7---6--------------------------|
A|---9---7-5-----9---7-5----------------------|
E|-----------7-----------7--------------------|

Parte 3

G|--------------------------------------------|
D|-7---6--------------------------------------|
A|---9---7-5-------5--------------------------|
E|-----------7-5-7----------------------------|

Parte 4 ( tocar 3x )

G|--------------------------------------------|
D|-7---6-------7---6--------------------------|
A|---9---7-5-----9---7-5----------------------|
E|-----------7-----------7--------------------|

Parte 5

G|--------------------------------------------|
D|-7---6--------------------------------------|
A|---9---7-5-------5--------------------------|
E|-----------7-5-7----------------------------|

Parte 6 ( tocar 2x )

G|--------------------------------------------|
D|-7---6-------7---6--------------------------|
A|---9---7-5-----9---7-5----------------------|
E|-----------7-----------7--------------------|

Parte 7 ( Tocar 2x )

G|-7---6--------7---6-------------------------|
D|---9---7-5------9---7-5---------------------|
A|-----------7------------7-------------------|
E|--------------------------------------------|

Parte 8

G|--------------------------------------------|
D|-7---6-------7---6--------------------------|
A|---9---7-5-----9---7-5----------------------|
E|-----------7-----------7--------------------|

Parte 9

G|--------------------------------------------|
D|-7---6-------7---6--------------------------|
A|---9---7-5-----9---7-5-------5-7------------|
E|-----------7-----------7-5-7----------------|

Quinta parte

Parte 1

G|--------------------------------------------|
D|--------------------------7-----------------|
A|--------7--------5--------------------------|
E|-0-0--0---0-0--0---0-0--0---5-5-5--5-5------|

Parte 2

G|--------------------------------------------|
D|--------10----------------------------------|
A|--------------------------------------------|
E|-0-0--0----8-7-5----------------------------|

Parte 3

No, his mind is not for rent...

G|--------------------------------------------|
D|--------------------------7--------10-------|
A|--------7--------5--------------------------|
E|-0-0--0---0-0--0---0-0--0---0-0--0----------|

Parte 4

G|--------------------------------------------|
D|----10-10-------10-9-7-10-10-9-9-7-7--------|
A|-10-------10-10-----------------------------|
E|--------------------------------------------|

Parte 5

G|-----------------------------7-7------------|
D|--------------4h5-4-4-----------------------|
A|--------7-------------5-5--5-----5----------|
E|-0-0--0---0-0-------------------------------|

Parte 6

G|-7---7---7----------------------------------|
D|--------------------7-7-----7-7---7-7-------|
A|---5---5------------------------------------|
E|-------------5-5--5-----5-5-----5-----------|

Parte 7

G|--------------------------------------------|
D|-10-9-7-5-5-4-------------------------------|
A|--------------7-----------------------------|
E|--------------------------------------------|

Sexta Parte

Parte 1

G|--------------------------------------------|
D|--------------------2-----------------------|
A|------------0-0---0---3--2-3-2-0------------|
E|-0-2--0-2-3-----3----------------3-2--------|

What you say about his company... 

Parte 2( tocar 2x )

G|--------------------------------------------|
D|----------2---------------------------------|
A|--------0---3-2-0---------------------------|
E|-0-2--3-----------3-2-----------------------|

Parte 3

G|--------------------------------------------|
D|----------2---------------------------------|
A|--------0---3-2-0---------------------------|
E|-0-2--3-----------3-2-----------------------|

Parte 4

G|--------------------------------------------|
D|--------------------2-----------------------|
A|------------0-0---0----3--2-3-2-0-2-0-------|
E|-0-2--0-2-3-----3---------------------------|

Sétima parte

The world is, the world is... 

Parte 1

G|-------4------------------------------------|
D|-------4------------------------------------|
A|-0-0-2-2-----2------------------------------|
E|---------5-3---5-3-5-0----------------------|

Oitava parte Final

Exit the warrior oday's...friction of the day.

Parte 1

G|--------------------------------------------|
D|-----4---------------------------4----------|
A|---4---------------------------4------------|
E|-2-----0-2--0-2--0-2--0-2-0--2--------------|

Parte 2

G|--------------------------------------------|
D|-------4-------4-------4-------4-------4----|
A|-----4-------4-------4-------4-------4------|
E|-0-2-----0-2-----0-2-----0-2-----0-2--------|

Fad Out.

Composição de Geddy Lee / Kåre Christoffer Vestrheim / Neil Peart / The Dubois'
Colaboração e revisão:
  • Reginaldo Costa
  • Henrique Cassis
30.220 exibições

0 comentários

Mostrar mais comentários

Conseguiu tocar?

6 Tocaram 0 Ainda não

Grave um vídeo tocando Tom Sawyer e mande pra gente!

00:00 / 00:00
outros vídeos desta música
repetir qualidade Automático
Outros vídeos desta música
00:00 / 00:00
Automático
Capítulos
  • Tocando a música
  • Dicas iniciais / Equipamentos
  • Tocando Introdução e Primeira Parte
  • Ensinando Introdução e Primeira Parte
  • Dicas da Segunda Parte
  • Tocando Segunda Parte
  • Ensinando Segunda Parte
  • Dicas da Terceira Parte
  • Tocando Terceira PArte
  • Ensinando Terceira Parte
  • Dicas Quarta Parte
  • Tocando Quarta Parte
  • Ensinando Quarta Parte
  • Dicas da Quinta Parte
  • Tocando Quinta Parte
  • Ensinando Quinta Parte
  • Tocando Sexta Parte
  • Ensinando Sexta Parte
  • Dicas Sétima Parte
  • Tocando Sétima Parte
  • Ensinando Sétima Parte
  • Dicas Oitava Parte e Final
  • Tocando Oitava Parte e Final
  • Ensinando Oitava Parte e Final
  • Encerramento
  • Ficha técnica / Erros de Gravação

Cifra Club Pro

Aproveite o Cifra Club com benefícios exclusivos e sem anúncios
7 dias grátis
Cifra Club Pro
Aproveite o Cifra Club com benefícios exclusivos e sem anúncios
7 dias grátis
OK