Cifra Club

Aprenda

YYZ

Rush

Cifra: Principal (violão e guitarra)
Tom: B
Intro:
E|----------------------------------------------------------------------|
B|----------------------------------------------------------------------|
G|----------------------------------------------------------------------|
D|----------------------------------------------------------------------|
A|-3---3-3-3---3-3-3-3----3---3-3-3---3-3-3-3----3---3-3-3---3-3-3-3----|
E|---2-------2---------22---2-------2---------22---2-------2---------22-|

E|----------------------------------------------------------------------|
B|----------------------------------------------------------------------|
G|----------------------------------------------------------------------|
D|----------------------------------------------------------------------|
A|-3---3-3-3---3-3-3-3----3---3-3-3---3-3-3-3----3---3-3-3---3-3-3-3----|
E|---2-------2---------22---2-------2---------22---2-------2---------22-|

E|----------------------------------------------------------------------|
B|----------------------------------------------------------------------|
G|----------------------------------------------------------------------|
D|----------------------------------------------------------------------|
A|-3---3-3-3---3-3-3-3----3---3-3-3---3-3-3-3----3---3-3-3---3-3-3-3----|
E|---2-------2---------22---2-------2---------22---2-------2---------22-|

E|--------------------------------------------------------------------------------------------|
B|--------------------------------------------4-5-4-------------------------------------------|
G|----------------------------------------4-6-------6-5---4-5-4-------7-7-7-5-7-5-4-----------|
D|----------------------------------4-7-6-----------------------5-4-----------------7-5-4--4/-|
A|-3---3-3-3---3-3-3-3----3-3-4-7-6-----------------------------------------------------------|
E|--------------------------------------------------------------------------------------------|


E|--------------------------------------------------------------------------------------|
B|--------------------------------------------------------------------------------------|
G|-2-2---2------------2-2---2------------------2-2---2------------2-2---2---------------|
D|-----4---4-3-2----------4---4-2------------------4---4-3-2----------4---4-2-----------|
A|---------------4----------------4-3-2-4--------------------4----------------4-3-2-4---|
E|----------------------------------------2-------------------------------------------2-|

E|-----------------------------------------------------------------------------------------|
B|-----------------------------------------------------------------------------------------|
G|-5-5---5------------5-5---5------------------5-5---5------------5-5--5-------------------|
D|-----7---7-6-5----------7---7-5------------------7---7-6-5---------7---7-5---5-5---5-5---|
A|---------------7----------------7-6-5-7--------------------7---------------7-----7-----7-|
E|----------------------------------------5------------------------------------------------|

E|--------------------------------------------------------------------------------------|
B|--------------------------------------------------------------------------------------|
G|-2-2---2------------2-2---2------------------2-2---2------------2-2---2---------------|
D|-----4---4-3-2----------4---4-2------------------4---4-3-2----------4---4-2-----------|
A|---------------4----------------4-3-2-4--------------------4----------------4-3-2-4---|
E|----------------------------------------2-------------------------------------------2-|

E|--------------------------------------------------------------------------------------|
B|--------------------------------------------------------------------------------------|
G|-5-5---5------------5-5---5------------------5-5---5------------5-5--5----------------|
D|-----7---7-6-5----------7---7-5------------------7---7-6-5---------7---7-5------------|
A|---------------7----------------7-6-5-7--------------------7---------------7-6-5-7----|
E|----------------------------------------5------------------------------------------5--|


E|-------------------------------------------------------|
B|--4-5-7/----4-5-7-7br----4-5-7/--------------4-5-7-7br-|
G|*--------2----------------------2-2-2-2-2p4------------|
D|*------------------------------------------------------|
A|-------------------------------------------------------|
E|-------------------------------------------------------|

E|-----------------------------------------------------------------------------------------------|
B|-------------------  -------------------------  ------------------  ---------------------------|
G|-5-7-7/9-7p9h7p9/12--5-7-7/9-7p9h7/9p12h9p12h9--5-7-7/9-7p9h7p9/12--5-7-7/9-7p9h7/9p12h9p12h9-*|
D|----------------------------------------------------------------------------------------------*|
A|-----------------------------------------------------------------------------------------------|
E|-----------------------------------------------------------------------------------------------|


   1 e 2 e 3 e 4 e 1 e 2 e 3 e 4 e 1  e  2 e  3 e  4 e  1  e 2 e 3 e 4 e
E|-7-7---7---7---7-7-7---7---7---7-08-08---08---08---08-08---------------|
B|-7-7---7---7---7-7-7---7---7---7-08-08---08---08---08-08---------------|
G|-8-8---8---8---8-8-8---8---8---8-09-09---09---09---09-09--( solo de ---|
D|-7-7---7---7---7-7-7---7---7---7-10-10---10---10---10-10---  baixo  )--|
A|-9-9---9---9---9-9-9---9---9---9-10-10---10---10---10-10---------------|
E|-7-7---7---7---7-7-7---7---7---7-08-08---08---08---08-08---------------|

   1 e 2 e 3 e 4 e 1 e 2 e 3 e 4 e 1  e  2 e  3 e 4  e  1  e 2 e 3 e 4 e
E|-7-7---7---7---7-7-7---7---7---7-08-08---08---08---08-08---------------|
B|-7-7---7---7---7-7-7---7---7---7-08-08---08---08---08-08---------------|
G|-8-8---8---8---8-8-8---8---8---8-09-09---09---09---09-09--( solo de ---|
D|-7-7---7---7---7-7-7---7---7---7-10-10---10---10---10-10--- bateria )--|
A|-9-9---9---9---9-9-9---9---9---9-10-10---10---10---10-10---------------|
E|-7-7---7---7---7-7-7---7---7---7-08-08---08---08---08-08---------------|

   1 e 2 e 3 e 4 e 1 e 2 e 3 e 4 e 1  e  2 e  3 e 4  e  1  e 2 e 3 e 4 e
E|-7-7-7-----------7-7-7-----------08-08-08-------------08---------------|
B|-7-7-7-----------7-7-7-----------08-08-08-------------08---------------|
G|-8-8-8-----------8-8-8-----------09-09-09-------------09--( solo de ---|
D|-7-7-7-------7---7-7-7-------7---08-08-08---------8---08---  baixo ----|
A|-9-9-9-----9-----9-9-9-----9-----10-10-10------10-----10---------------|
E|-7-7-7---7-------7-7-7---7-------08-08-08---08--------08---------------|

   1   e   2   e   3   e   4   e   1   e   2   e   3   e   4   e
E|-x-x-x-x-7---x-x-x-x-x-x-7---x-x-x-x-x-x-7---x-x-x-x-x-x-7---x-x-|
B|-x-x-x-x-7---x-x-x-x-x-x-7---x-x-x-x-x-x-7---x-x-x-x-x-x-7---x-x-|
G|-x-x-x-x-8---x-x-x-x-x-x-8---x-x-x-x-x-x-8---x-x-x-x-x-x-8---x-x-|
D|-x-x-x-x-7---x-x-x-x-x-x-7---x-x-x-x-x-x-7---x-x-x-x-x-x-7---x-x-|
A|-x-x-x-x-9---x-x-x-x-x-x-9---x-x-x-x-x-x-9---x-x-x-x-x-x-9---x-x-|
E|-x-x-x-x-7---x-x-x-x-x-x-7---x-x-x-x-x-x-7---x-x-x-x-x-x-7---x-x-|

   1   e   2   e   3   e   4   e   1   e   2   e   3   e   4   e
E|-x-x-x-x-8---x-x-x-x-x-x-8---x-x-8-------------------------------|
B|-x-x-x-x-8---x-x-x-x-x-x-8---x-x-8-------------------------------|
G|-x-x-x-x-9---x-x-x-x-x-x-9---x-x-9------( solo de bateria )------|
D|-x-x-x-x-8---x-x-x-x-x-x-8---x-x-8-------------------------------|
A|-x-x-x-x-10--x-x-x-x-x-x-10--x-x-10------------------------------|
E|-x-x-x-x-8---x-x-x-x-x-x-8---x-x-8-------------------------------|

   1 e 2 e 3 e 4 e 1 e 2 e 3 e 4 e 1 e 2 e 3 e 4 e 1 e 2 e 3 e 4 e
E|-----7-------7-------7-------7-------8-------8---8---------------|
B|-----7-------7-------7-------7-------8-------8---8---------------|
G|-----8-------8-------8-------8-------9-------9---9---( solo de --|
D|-----7-------7-------7-------7-------8-------8---8----  baixo )--|
A|-9-------9-------9-------9-------10------10------10--------------|
E|-7-------7-------7-------7-------8-------8-------8---------------|




( No Ao Vivo Tem Um Solo De Batera Antes )

Solo de Guitarra:
E|----------|--------------------------------------------------------------------|
B|-15h13h12h|0p7p8p10 8p10h8h7p8h7---------7-8-10-8-7p8h75---5-7-7-7b--5---5-----|
G|----------|----------------------9---8-8------------------8-------------8------|
D|----------|--------------------------------------------------------------------|
A|----------|--------------------------------------------------------------------|
E|----------|--------------------------------------------------------------------|
                                                       c/ alavanca
E|-----------------------14h-1211-p12h11-----------11----11brb-------|
B|-0p1p4p1h0p4p7h4h0-12--------------------13h12p13----13-------13----|
G|--------------------------------------------------------------------|
D|--------------------------------------------------------------------|
A|--------------------------------------------------------------------|
E|--------------------------------------------------------------------|

E|-17-14p15h14p15h14h12p14----12------------------------------------------------------|
B|-------------------------16----16-13-15-13-15-15br-12p13h12p13h 12-13br-12-10-12-13-|
G|------------------------------------------------------------------------------------|
D|------------------------------------------------------------------------------------|
A|------------------------------------------------------------------------------------|
E|------------------------------------------------------------------------------------|

E|---------------------------------------------------------------------------------------------|
B|-13h12h10p13h108p10h8h7---01p1p4h1h0p1h0-5p7h4h0p4p5h4p5h4h0-10p13--10p13h108p10h8p10h8p10-|
G|---------------------------------------------------------------------------------------------|
D|---------------------------------------------------------------------------------------------|
A|---------------------------------------------------------------------------------------------|
E|---------------------------------------------------------------------------------------------|

E|------------------------------------------------------------------------------------|
B|-78p10---0p10p12h10h0p10p12h10h0p8p10h8h0p8p10h8h0p7p8h7h0p5p7h5h0p4p5h4h0p1p4h1h0--|
G|------------------------------------------------------------------------------------|
D|------------------------------------------------------------------------------------|
A|------------------------------------------------------------------------------------|
E|------------------------------------------------------------------------------------|

E|--------|--------|--------|--------|--------|--------|--------|--------|--------|--------|
B|-10~~~~-|--------|--------|--------|--------|--------|--------|--------|--------|--------|
G|--------|--------|--------|--------|--------|--------|--------|--------|-----9--|--------|
D|--------|--------|--------|--------|--------|--------|--------|--------|-7------|--------|
A|--------|--------|--------|--------|--------|--------|--------|--------|--------|--------|
E|--------|--------|--------|--------|--------|--------|--------|--------|--------|--------|

E|12------|--------|--------|--------|--------|--------|--------|
B|------13|--------|-12br---|--------|--------|--------|--------|
G|----14--|--------|------12|--------|-----5--|--------|--------|
D|--------|--------|--------|--------|-7------|--------|-----4/-|
A|--------|--------|--------|--------|--------|--------|--------|
E|--------|--------|--------|--------|--------|--------|--------|

E|--------------------------------------------------------------------------------------|
B|--------------------------------------------------------------------------------------|
G|-2-2---2------------2-2---2------------------2-2---2------------2-2---2---------------|
D|-----4---4-3-2----------4---4-2------------------4---4-3-2----------4---4-2-----------|
A|---------------4----------------4-3-2-4--------------------4----------------4-3-2-4---|
E|----------------------------------------2-------------------------------------------2-|

E|-----------------------------------------------------------------------------------------|
B|-----------------------------------------------------------------------------------------|
G|-5-5---5------------5-5---5------------------5-5---5------------5-5--5-------------------|
D|-----7---7-6-5----------7---7-5------------------7---7-6-5---------7---7-5---5-5---5-5---|
A|---------------7----------------7-6-5-7--------------------7---------------7-----7-----7-|
E|----------------------------------------5------------------------------------------------|

E|--------------------------------------------------------------------------------------|
B|--------------------------------------------------------------------------------------|
G|-2-2---2------------2-2---2------------------2-2---2------------2-2---2---------------|
D|-----4---4-3-2----------4---4-2------------------4---4-3-2----------4---4-2-----------|
A|---------------4----------------4-3-2-4--------------------4----------------4-3-2-4---|
E|----------------------------------------2-------------------------------------------2-|

E|--------------------------------------------------------------------------------------|
B|--------------------------------------------------------------------------------------|
G|-5-5---5------------5-5---5------------------5-5---5------------5-5--5----------------|
D|-----7---7-6-5----------7---7-5------------------7---7-6-5---------7---7-5------------|
A|---------------7----------------7-6-5-7--------------------7---------------7-6-5-7----|
E|----------------------------------------5------------------------------------------5--|

E|--------------------------------------------------------|
B|-4-5-7/-----4-5-7-7br----4-5-7/---------------4-5-7-7br-|
G|--------2-----------------------2-2-2-2-2p4-------------|
D|--------------------------------------------------------|
A|--------------------------------------------------------|
E|--------------------------------------------------------|

E|----------------------------------------------------------------------------------------------|
B|-------------------  -------------------------  ------------------  --------------------------|
G|-5-7-7/9-7p9h7p9/12--5-7-7/9-7p9h7/9p12h9p12h9--5-7-7/9-7p9h7p9/12--5-7-7/9-7p9h7/9p12h9p12h9-|
D|----------------------------------------------------------------------------------------------|
A|----------------------------------------------------------------------------------------------|
E|----------------------------------------------------------------------------------------------|

E|--------------------------------------------------------|
B|-4-5-7/-----4-5-7-7br----4-5-7/---------------4-5-7-7br-|
G|--------2-----------------------2-2-2-2-2p4-------------|
D|--------------------------------------------------------|
A|--------------------------------------------------------|
E|--------------------------------------------------------|

E|-----------------------------------------------------------------------|
B|-----------------------------------------------------------------------|
G|-5-7-7/9-7p9h7p9/12---5-7-7/9-7p9h7/9p12h9p12h9---5-7-7/9-7p9h7p9/12~~-|
D|-----------------------------------------------------------------------|
A|-----------------------------------------------------------------------|
E|-----------------------------------------------------------------------|

E|-----------------|-----------|
B|-----------------|-----------|
G|-----------------|-----------|
D|-----------------|--4-2------|
A|--3-3---3-3-3----|------5-2--|
E|------2-------2--|-----------|


No meio da música tem vários riffs de baixo e não estão aqui... aqui
está só os de guitarra
Composição de Geddy Lee / Neil Peart
61.865 exibições
    • ½ Tom
    • A
    • Bb
    • B
    • C
    • Db
    • D
    • Eb
    • E
    • F
    • F#
    • G
    • Ab
  • Adicionar à lista

    0 comentários

    Mostrar mais comentários

    Conseguiu tocar?

    5 Tocaram 1 Ainda não

    Grave um vídeo tocando YYZ e mande pra gente!

    00:00 / 00:00
    outros vídeos desta música
    repetir qualidade Automático
    Outros vídeos desta música
    00:00 / 00:00
    Automático

    Cifra Club Pro

    Aproveite o Cifra Club com benefícios exclusivos e sem anúncios
    7 dias grátis
    Cifra Club Pro
    Aproveite o Cifra Club com benefícios exclusivos e sem anúncios
    7 dias grátis
    OK