Cifra Club

Feeling Bad Blues

Ry Cooder

Cifra: Principal (violão e guitarra)
tom: D
e-|-------------------------------------------------------------------------|
B-|----------12~---/12-s-10-----------------12--/12-/12---------------------|
G-|-10-s-12--12~-----------12-s-11------/12-------------12-s-11------10\-(0)|
D-|-10-s-12--12~------------------/12--------------------------/12---10\-(0)|
A-|-10-s-12--12~-----------------------------------------------------10\-(0)|
E-|-10-s-12----------------------------------------------------------10\-(0)|

|-------------------------------------------------------------------0-------|
|----5--5-5----------5--5-5----0-h-2--0-------------------------------------|
|-/5--------------/5------------------0-------------------------------------|
|-----------5-----------------------------------------0-----------------0---|
|-----------------------------------------------0-h-2-----------------------|
|-------------------------------------------/4-----------0------------------|

|-----------------------------------------------0--------------------0------|
|----5---5-5---------5--5-5------0-h/2--0--------------------------0--------|
|----5------------/5--------------------------------------------------------|
|-/5---------5--------------------------------0-------------0---------------|
|-/5----------------------------------------------------0-2-----------------|
|-/5----------------------------------------0--------/4--------0------------|

|-/4--4-s-2-p-0-/2---2--4-s-2-p-0-------------0-2-0------0-----0------------|
|-----------------------------------------0h2-----0-------------------------|
|----------------------------------------------------0h1-0------------------|
|----------------------------------------------------0---0---0----------0-0-|
|----------------0----------------0-1-/2----------0----------2----(0)h2-----|
|---------------------------------------------------------------------------|

|------------0--------------------------------------------------------------|
|--------0-2------12--/12-s-10-s-12--------------------12--12-12~-----------|
|--------------/12------------------/12-------------/12------------12s11----|
|---------------------------------------12-------0----------------------/12-|
|-2b-0---------------------------------------0-2----------------------------|
|---------------------------------------------------------------------------|

|------------------------------------------------0----------0--/4-/4-s-2-p-0|
|-------------5-5--/5-/5---------5-5-5---0h2--0-----------------------------|
|-------3-s-5-5-5-----------------------------------------------------------|
|-/10\--------------------------------------------------0-------------------|
|-/10\----------------------------------------0-----0h2---------------------|
|-/10\---------------------3-s-5--------------------0-----0-----------------|

|---------------------------------0--------------------0-/4--\2-p-0--2------|
|-----5--5-5----------5--5-5\-----0-----------------------------------------|
|--/5--------------/5---------/5--------------------------------------------|
|------------5--------------------------------------------------------------|
|---------------5------------------------2---------------------------0------|
|--------------5---------------------0------3-s-2-0-------------------------|

|--/4p0--4-s-2-0--------------0-2-0-----------------------------------------|
|----------------0-------0h2--0---0--------------------------------------0--|
|--------------------------------------0h1-0----0-1-------------------------|
|--------------------------------------0---0--------0--------0---/4--0------|
|----------------0-1-2------------0-------------0-2---2--0h2-----------0----|
|--------------------------------------------0------------------------------|

|-0-/4--/7~----4-s-2-p-0---4-s-2------/4--/7--7-7---/5---4p0-/4--p0---------|
|--------------------------------/5---------------------------------/3------|
|----0----------------------------------------------------------------------|
|--------0---------------------------------0---------0----------------------|
|---------------------------------------------------------------------------|
|-----------0---------------------------------------------------------------|

|----------------------------------------------------------0-0--------------|
|------5-5--5-5-----------5-5-5-s-3-p-0--/3-s-2-p-0----0-3------------------|
|-----------------------5---------------------------------------------------|
|--------------5------------------------------------------------/5-s-3-p-0--|
|---------------------------------------------------------------------------|
|-3-/5-------------0--5-----------------------------------------/5-s-3-p-0--|

|-0----------------------------------------------------------------4p0------|
|--------0---------5--5-/5-s-4--------5-5-5-5-s-2-p-0-h/2~-------------0----|
|------------3--/5------/5-s-4----------------------------------/3----------|
|-----------------------------/5----------------------------0---------------|
|---------------------------------------------------------------------------|
|----/4------3--/5----------------0-5-----------------------0---------------|

|---------------------0-/4-/4--/7--\2-------------0-2-0---------------------|
|--------------0--0-------------------0-------0h2-----0-------------0-------|
|-------------------------------------------------------0h1-0----/3---------|
|-/5--\3--0-0-------------------------------------------0---0---------------|
|---------------------------------------0-1-2---------0----------------2----|
|--------------0----5-------------------------------------------------------|

|------------------/12-12-12---/7--/4-s-3---------7-/9-/12-12--12--/12------|
|----------------------------------/4-s-3-/5--------------------------------|
|---------------------------------------------------------------------------|
|-/4-0---------2-------0----------------------0-----------------------------|
|---------/5-0--------------------------------------------------------------|
|-----0---------------------------------------------------------------------|

|-7-/10---------------------------------/7--5--4------------/7--5-/3-s-2----|
|--------/12-s-10--------------------------------/5-------------------------|
|-----------------/12~------------------------------------------------------|
|----------------------12\-(0)----------------------------------------------|
|---------------------------------------------------------------------------|
|--------------------------------3-s-5----------------3-/5------------------|

|-0---0-----------/4p0-------------------------0-----------5--3-s-2---------|
|---2------------------------------------0-/3------------5----------/5------|
|-------------/3-------3-s-1-p-0--------------------------------------------|
|-------0------------------------0----------------3-s-5---------------------|
|---------------------------------------------------------------------------|
|---------0------------------------0--------------3-s-5---------------------|

|--------5-3-s-2-p-0-----0-------------------------------0-/4-/4-4-s-2------|
|--------------------2-0-----------------------------0-2---------------0----|
|---------------------------------------------------------------------------|
|---------------------------------------------------------------------------|
|----------------------------/2-0-------------------------------------------|
|-3-s-5----------------------------/4-s-2-0---/4-5--------------------------|

|------------0-2-0-----------0-0-0------0----10-s-12--|
|--------0h2-0---0-----------0-0-0------0----10-s-12--|
|-------------------0h1-0--------------------10-s-12--|
|-------------------0---0--------------------10-s-12--|
|-0-1-2----------0-----------3---2---1--0-------------|
|-------------------------0---------------------------|
00:00 / 00:00
Outros vídeos desta música
Repetir
Outros vídeos desta música
Compositor não encontrado.
Colaboração e revisão:
  • william jam
1.283 exibições
    • ½ Tom
    • A
    • Bb
    • B
    • C
    • Db
    • D
    • Eb
    • E
    • F
    • F#
    • G
    • Ab
  • Adicionar à lista

    0 comentários

    Ver todos os comentários

    Entre para oCifra Club PRO

    Tenha acesso a benefícios exclusivos no App e no Site

    • Chega de anúncios

    • Prioridade de compra em lançamentos

    • Mais recursos no app do Afinador

    • Atendimento Prioritário

    • Descontos nos produtos Cifra Club

    • Ajude a produzir mais conteúdo

    00:00 / 00:00

    Cifra Club Pro

    Aproveite o Cifra Club com benefícios exclusivos e sem anúncios
    Cifra Club Pro
    Aproveite o Cifra Club com benefícios exclusivos e sem anúncios
    OK