Cifra Club

Smoking Snakes

Sabaton

Cifra: Principal (violão e guitarra)
exibições 4.984
Tom: A#
E|--------------------------------------------------|
B|--------------------------------------------------|
G|-------------3--3--3--5--3--5--8--8--8---3---3~---|  
D|-------------1--0--1--3--1--3--5--6--5---3---1~---|
A|-5--5--5--8---------------------------------------|
E|-3--5--3--5---------------------------------------|

PM       . . .        . . .        . . .        . . .     
E|------------------------------------------------------|
B|------------------------------------------------------|
G|------------------------------------------------------|  
D|------------------------------------------------------|
A|-5--5---------5--5---------5--5---------5--5----------|
E|-3--3--3-3-3--3--3--3-3-3--3--3--3-3-3--3--3--3-3-3---|

E|-----------------|
B|-----------------|
G|-----------------|  
D|-----------------|
A|-6---5---8---3---|
E|-3---3---6---1---|

PM       . . .        . . .        . . .        . . .     
E|------------------------------------------------------|
B|------------------------------------------------------|
G|------------------------------------------------------|  
D|------------------------------------------------------|
A|-5--5---------5--5---------5--5---------5--5----------|
E|-3--3--3-3-3--3--3--3-3-3--3--3--3-3-3--3--3--3-3-3---|

E|-----------------|
B|-----------------|
G|-----------------|  
D|-----------------|
A|-6---8---5---3---|
E|-3---6---3---1---|

PM . . . . . . . . . . . . . . . . . . . . . . . . 
E|--------------------------------------------------|
B|--------------------------------------------------|
G|--------------------------------------------------|  
D|--------------------------------------------------|
A|-------------------------3-0-0-3-0-0-3-0-0-3-0-0--|
E|-6-3-3-6-3-3-6-3-3-6-3-3--------------------------|

PM . . . . . . . . . . . . . . . . . . . . . . . . 
E|--------------------------------------------------|
B|--------------------------------------------------|
G|--------------------------------------------------|  
D|--------------------------------------------------|
A|-5-1-1-5-1-1-5-1-1-5-1-1-6-3-3-5-3-3-6-5-3--------|
E|-------------------------------------------6-5-3--|

PM . . . . . . . . . . . . . . . . . . . . . . . . 
E|--------------------------------------------------|
B|--------------------------------------------------|
G|--------------------------------------------------|  
D|--------------------------------------------------|
A|-------------------------3-0-0-3-0-0-3-0-0-3-0-0--|
E|-6-3-3-6-3-3-6-3-3-6-3-3--------------------------|

PM . . . . . . . . . . . . . . . . . . . . . . . . 
E|--------------------------------------------------|
B|--------------------------------------------------|
G|--------------------------------------------------|  
D|--------------------------------------------------|
A|-5-1-1-5-1-1-5-1-1-5-1-1-6-3-3-5-3-3-6-5-3--------|
E|-------------------------------------------6-5-3--|

PM                    . . .     . . .     . . .     . . .
E|---------------------------------------------------------|
B|---------------------------------------------------------|
G|---------------------------------------------------------|  
D|-------------5--5-5-------4-4-------5-5-------7-7--------|
A|-5---8---8---3--5-5-5-5-5-5-5-5-5-5-5-5-5-5-5-5-5-5-5-5--|
E|-3---5---6-----------------------------------------------|

PM                . . .     . . .     . . .     . . .
E|-----------------------------------------------------|
B|-----------------------------------------------------|
G|-----------------------------------------------------|  
D|------------5-5-------5-5-------3-3------------------|
A|-5----8--3--3-3-3-3-3-3-3-3-3-3-1-1-1-1-1-3-3--------|
E|-3----6--1--------------------------------1-1-1-1-1--|

PM . . . . . . . . . . . . . . . . . . . . . . . . 
E|--------------------------------------------------|
B|--------------------------------------------------|
G|--------------------------------------------------|  
D|--------------------------------------------------|
A|-------------------------3-0-0-3-0-0-3-0-0-3-0-0--|
E|-6-3-3-6-3-3-6-3-3-6-3-3--------------------------|

PM . . . . . . . . . . . . 
E|----------------------------------|
B|----------------------------------|
G|----------------------------------|  
D|-------------------------5-----3--|
A|-5-1-1-5-1-1-5-1-1-5-1-1-3--3--1--|
E|----------------------------1-----|

PM       . . .        . . .        . . .        . . .     
E|------------------------------------------------------|
B|------------------------------------------------------|
G|------------------------------------------------------|  
D|------------------------------------------------------|
A|-5--5---------5--5---------5--5---------5--5----------|
E|-3--3--3-3-3--3--3--3-3-3--3--3--3-3-3--3--3--3-3-3---|

E|-----------------|
B|-----------------|
G|-----------------|  
D|-----------------|
A|-6---5---8---3---|
E|-3---3---6---1---|

PM       . . .        . . .        . . .        . . .     
E|------------------------------------------------------|
B|------------------------------------------------------|
G|------------------------------------------------------|  
D|------------------------------------------------------|
A|-5--5---------5--5---------5--5---------5--5----------|
E|-3--3--3-3-3--3--3--3-3-3--3--3--3-3-3--3--3--3-3-3---|

E|-----------------|
B|-----------------|
G|-----------------|  
D|-----------------|
A|-6---8---5---3---|
E|-3---6---3---1---|

PM . . . . . . . . . . . . . . . . . . . . . . . . 
E|--------------------------------------------------|
B|--------------------------------------------------|
G|--------------------------------------------------|  
D|--------------------------------------------------|
A|-------------------------3-0-0-3-0-0-3-0-0-3-0-0--|
E|-6-3-3-6-3-3-6-3-3-6-3-3--------------------------|

PM . . . . . . . . . . . . . . . . . . . . . . . . 
E|--------------------------------------------------|
B|--------------------------------------------------|
G|--------------------------------------------------|  
D|--------------------------------------------------|
A|-5-1-1-5-1-1-5-1-1-5-1-1-6-3-3-5-3-3-6-5-3--------|
E|-------------------------------------------6-5-3--|

PM . . . . . . . . . . . . . . . . . . . . . . . . 
E|--------------------------------------------------|
B|--------------------------------------------------|
G|--------------------------------------------------|  
D|--------------------------------------------------|
A|-------------------------3-0-0-3-0-0-3-0-0-3-0-0--|
E|-6-3-3-6-3-3-6-3-3-6-3-3--------------------------|

PM . . . . . . . . . . . . . . . . . . . . . . . . 
E|--------------------------------------------------|
B|--------------------------------------------------|
G|--------------------------------------------------|  
D|--------------------------------------------------|
A|-5-1-1-5-1-1-5-1-1-5-1-1-6-3-3-5-3-3-6-5-3--------|
E|-------------------------------------------6-5-3--|

PM                    . . .     . . .     . . .     . . .
E|---------------------------------------------------------|
B|---------------------------------------------------------|
G|---------------------------------------------------------|  
D|-------------5--5-5-------4-4-------5-5-------7-7--------|
A|-5---8---8---3--5-5-5-5-5-5-5-5-5-5-5-5-5-5-5-5-5-5-5-5--|
E|-3---5---6-----------------------------------------------|

PM                . . .     . . .     . . .     . . .
E|-----------------------------------------------------|
B|-----------------------------------------------------|
G|-----------------------------------------------------|  
D|------------5-5-------5-5-------3-3------------------|
A|-5----8--3--3-3-3-3-3-3-3-3-3-3-1-1-1-1-1-3-3--------|
E|-3----6--1--------------------------------1-1-1-1-1--|

PM . . . . . . . . . . . . . . . . . . . . . . . . 
E|--------------------------------------------------|
B|--------------------------------------------------|
G|--------------------------------------------------|  
D|--------------------------------------------------|
A|-------------------------3-0-0-3-0-0-3-0-0-3-0-0--|
E|-6-3-3-6-3-3-6-3-3-6-3-3--------------------------|

PM . . . . . . . . . . . . 
E|----------------------------------|
B|----------------------------------|
G|----------------------------------|  
D|-------------------------5-----3--|
A|-5-1-1-5-1-1-5-1-1-5-1-1-3--3--1--|
E|----------------------------1-----|

E|-------------------------------------------------------|
B|-------------------------------------------------------|
G|-------------------------------------------------------|  
D|-------------------------------------8~-8-8------------|
A|-5-5--6-5-3-3--5-3-5-5--6-5---8~-8-8-6~-6-6-8~-8-8-3~--|
E|-3-3--3-3-1-1--1-1-3-3--3-3---6~-6-6--------6~-6-6-1~--|

PM .  .     . .  .     . .  .     . .  .     .
E|----------------------------------------------|
B|----------------------------------------------|
G|----------------------------------------------|  
D|----------------------------------------------|
A|-------5----------5----------5----------5-----|
E|-3--3--3--3-3--3--3--3-3--3--3--3-3--3--3--3--|

PM .  .     . .  .     . .  .     . .  .     .
E|----------------------------------------------|
B|----------------------------------------------|
G|----------------------------------------------|  
D|----------------------------------------------|
A|-------3----------3----------3----------3-----|
E|-1--1--1--1-1--1--1--1-1--1--1--1-1--1--1--1--|

PM .  .     . .  .     . .  .     . .  .     .
E|----------------------------------------------|
B|----------------------------------------------|
G|----------------------------------------------|  
D|----------------------------------------------|
A|-------5----------5----------5----------5-----|
E|-3--3--3--3-3--3--3--3-3--3--3--3-3--3--3--3--|

E|---------------------------|
B|---------------------------|
G|---------------------------|  
D|---------8~-8-8------------|
A|--8~-8-8-6~-6-6-8~-8-8-3~--|
E|--6~-6-6--------6~-6-6-1~--|

E|----------13-------13-------13-------13--------|
B|-13-15-16----15-------15-------15-------16-15--|
G|----------------15-------15-------15-----------|  
D|-----------------------------------------------|
A|-----------------------------------------------|
E|-----------------------------------------------|

E|-----------------------------------------------|
B|-13-------13-------13-------------13-----------|
G|----14-------14-------14----14-15--------------|  
D|-------15-------15-------15--------------------|
A|-----------------------------------------------|
E|-----------------------------------------------|

E|----------------------------------------------------------------|
B|-16-------16-------18-------16-------15-------16----15-13-------|
G|----17-------17-------17-------17-------15-------15-------14----|  
D|-------17-------17-------17-------17-------15----------------15-|
A|----------------------------------------------------------------|
E|----------------------------------------------------------------|

E|----------13-------13-------13-------13--------|
B|-13-15-16----15-------15-------15-------16-15--|
G|----------------15-------15-------15-----------|  
D|-----------------------------------------------|
A|-----------------------------------------------|
E|-----------------------------------------------|

E|-----------------------------------------------|
B|-13-------13-------13-------------13-----------|
G|----14-------14-------14----14-15--------------|  
D|-------15-------15-------15--------------------|
A|-----------------------------------------------|
E|-----------------------------------------------|

E|-----------------------------18-------15-------15-------15----------------|
B|-15-------15----15-20-15--------18-------15-------15-------18-16----------|
G|----15-------15----------15--------17-------15-------15----------17-14-17-|  
D|-------17-----------------------------------------------------------------|
A|--------------------------------------------------------------------------|
E|--------------------------------------------------------------------------|

E|------------------------------------------------------8-10~-10-10-8----8~-|
B|-----------------------------8~-11-11-11-10-8-8~-8-11---------------11----|
G|-----------------------7---7----------------------------------------------|  
D|-5--5-8-7-5--5-7-8-5-8---8------------------------------------------------|
A|--------------------------------------------------------------------------|
E|--------------------------------------------------------------------------|

E|-----------------------------8-10-8-------------11--11-11-10-8-10~-10-10-8--------|
B|-8~-8-8-8-10-11~-11-11-10h11--------11-10----8~----------------------------11-11~-|
G|------------------------------------------10--------------------------------------|  
D|----------------------------------------------------------------------------------|
A|----------------------------------------------------------------------------------|
E|----------------------------------------------------------------------------------|

E|-------8-10-8~-|
B|-11-11---------|
G|---------------|  
D|---------------|
A|---------------|
E|---------------|

E|-10-------10-------10-------------10-13-------13-------13-------11-10----|
B|----11-------11-------11----11-13-------13-------13-------13----------13-|
G|-------12-------12-------12----------------14-------14-------14----------|  
D|-------------------------------------------------------------------------|
A|-------------------------------------------------------------------------|
E|-------------------------------------------------------------------------|

E|-10-------10-------10-------------10-11-------10-------11-10----------11-|
B|----11-------11-------11----11-13-------13-------13----------13-11-13----|
G|-------10-------10-------10----------------12-------12-------------------|  
D|-------------------------------------------------------------------------|
A|-------------------------------------------------------------------------|
E|-------------------------------------------------------------------------|

E|-10----------------10----10/15----15-17-------15-------13-------11-10----|
B|----11----10-11-13----11-------15-------18----------------13----------13-|
G|-------12----------------------------------17----17\14-------14----------|  
D|-------------------------------------------------------------------------|
A|-------------------------------------------------------------------------|
E|-------------------------------------------------------------------------|

E|-10-------11-------13-------11\10----8-----8-----10-------------10-|
B|----11----------------11----------11---8-------8----11----11-13----|
G|-------10----10-10-------10--------------8---8---------10----------|  
D|-------------------------------------------------------------------|
A|-------------------------------------------------------------------|
E|-------------------------------------------------------------------|

E|-15~---17~---18~---20~--20b22-20b22~-----------|
B|-----------------------------------------------|
G|-----------------------------------------------|  
D|-----------------------------------------------|
A|-----------------------------------------------|
E|-----------------------------------------------|

PM                . . .     . . .     . . .     . . .
E|-----------------------------------------------------|
B|-----------------------------------------------------|
G|-----------------------------------------------------|  
D|------------5-5-------5-5-------3-3------------------|
A|-5----8--3--3-3-3-3-3-3-3-3-3-3-1-1-1-1-1-3-3--------|
E|-3----6--1--------------------------------1-1-1-1-1--|

PM . . . . . . . . . . . . . . . . . . . . . . . . 
E|--------------------------------------------------|
B|--------------------------------------------------|
G|--------------------------------------------------|  
D|--------------------------------------------------|
A|-------------------------3-0-0-3-0-0-3-0-0-3-0-0--|
E|-6-3-3-6-3-3-6-3-3-6-3-3--------------------------|

PM . . . . . . . . . . . . 
E|-------------------------------|
B|-------------------------------|
G|-------------------------------|  
D|-------------------------5-----|
A|-5-1-1-5-1-1-5-1-1-5-1-1-3--3--|
E|----------------------------1--|

E|-----------------------------------------------------------|
B|-----------------------------------------------------------|
G|-------------3--3--3--5--3--5--8--8--8---3---3~--3-3-3-3~--|  
D|-------------1--0--1--3--1--3--5--6--5---3---1~--1-1-1-1~--|
A|-5--5--5--8------------------------------------------------|
E|-3--5--3--5------------------------------------------------|





Intro: Gm  D  Bb  Cm  D  Cm  Bb

 Gm
3 Men stood strong, and they held out for long
 D#                   Bb            F
Going into the fight, to their death that awaits
 Gm
Crazy or brave, will it end in the grave?
 D#                   Bb
As they're giving their lives
 Gm                F
As their honor dictates

 Gm               Am       Bb
Far, far from home, to a war
          Cm
Fought on foreign soil and
 Gm               Am              Bb
Far, far from known, tell their tale
       F
Their forgotten story
 Gm     Am       Bb       Cm      D
Cobras fumantes, eterna é sua vitória

 Gm          Bb                 F
Rise from the blood of your heroes
     Cm                Bb               F
You, were the ones who refused to surrender
 Gm                         Am
The 3, rather died than to flee
                 Bb
Know that your memory
        F                 Bb
Will be sung for a century

 Gm
3 Took the blow, while impressing their foe
 D#
Throwing dice, with their lives
 Bb                    F
As they're paying the price
 Gm
Sent to raise hell, hear the toll of the bell
 D#                 Bb                         F
It is calling for you as the wehrmacht devised

 Gm               Am       Bb
Far, far from home, to a war
          Cm
Fought on foreign soil and
 Gm               Am              Bb
Far, far from known, tell their tale
       F
Their forgotten story
Gm     Am       Bb       Cm      D
Cobras fumantes, eterna é sua vitória

 Gm          Bb                 F
Rise from the blood of your heroes
     Cm                Bb               F
You, were the ones who refused to surrender
 Gm                         Am
The 3, rather died than to flee
                 Bb
Know that your memory
        F                 Bb
Will be sung for a century

 D#
Sent over seas to be cast into fire
 F                                    D
Fought for a purpose with pride and desire
 D#
Blood of the brave they would give to inspire
 Bb             F
Cobras fumantes, your memory lives!
 Gm
Sent over seas to be cast into fire
 F
Fought for a purpose with pride and desire
 Gm
Blood of the brave they would give to inspire
 Bb         D#     Bb          F
Cobras fumantes, your memory lives!

Solo: B   F   Cm Bb F Bb  F  Gm F Gm        D# Gm Bb F Gm   D# Bb F Gm Am Bb Cm Gm D Am  Bb  Cm  Gm F Bb Cm D

 D
Cobras fumantes, eterna é sua vitória

 D#           Bb                 F
Rise from the blood of your heroes
     Cm            Bb
You, were the ones who refused to surrender
                             Am
The 3, rather died than to flee
                     Bb
Know that your memory
                   Cm     F
Will be sung for a century

 Gm
We remember
 Bb
No surrender
 Cm   D         Cm    Bb
Heroes of the century
Acordes para:
    Composição: Joakim Broden Colaboração e revisão:
    • Felipe Coelho
    • Felipe Coelho
    • Alisson Dourado

    0 comentários

    mostrar mais comentários

    Conseguiu tocar?

    0 tocaram 0 ainda não

    Grave um vídeo tocando Smoking Snakes e mande pra gente!

    00:00 / 00:00
    outros vídeos desta música
    repetir qualidade Automático
    Outros vídeos desta música
    00:00 / 00:00
    Automático
    OK