Cifra Club

Tome Tome

Saiddy Bamba

Cifra: Principal (violão e guitarra)
exibições 14.811
Tom: D
Intro: D Bm Em A7 

Solo

Parte 1

E|-----------------------------------------------|
B|10----10-10----10-10----10----10-10----10-10---|
G|-----------------------------------------------| 2x
D|---12-------12-------12----11-------11-------11|
A|-----------------------------------------------|
E|-----------------------------------------------|

Saiddy Bamba !
Uuh
Quebra mãe
Uuh

Parte 2

E|---------------------|-------------------------|
B|10-10-12----10-10-10-|10-10-12----10-10-10-----|
G|---------------------|-------------------------| 2x
D|---------12----------|---------11--------------|
A|---------------------|-------------------------|
E|---------------------|-------------------------|

Uuh
Quebra !
Que que é isso ?!

Refrão

Parte 1

         D      Bm      Em       D      Bm      A7
E|-----------------------|-----------------------|
B|-----------------------|-----------------------|
G|-----------------------|-----------------------|
D|-----------------------|-----------------------| 2x
A|----4-5----4-2---------|----4-5----4-2---------|
E|5h7------------5-3-2-0-|5h7------------5-3-7-5-|

            D     Bm          Em
Quando eu meter você vai se jogar
            D     Bm          A7
Quando eu meter você vai se jogar

Refrão

Parte 2

E|---------------------------------------------------|
B|10-10----10-10----10----10-10----10-10----10-------|
G|---------------------------------------------------| 4x
D|------12-------12----11-------11-------11-----12---|
A|---------------------------------------------------|
E|---------------------------------------------------|

Sopro No Violão

E|---------|--------|--------------|
B|9/10-----|9/10----|9/10------9/10|
G|-----11-9|-----9-7|-----11-9-----|
D|---------|--------|--------------|
A|---------|--------|--------------|
E|---------|--------|--------------|


Tome Tome, Tome Tome Tome, Tome Tome, Tome Tome, uuh
D Bm Em A7
Tome Tome, Tome Tome Tome, Tome Tome, Tome Tome, uuh
Tome Tome, Tome Tome Tome, Tome Tome, Tome Tome, uuh
Tome Tome, Tome Tome Tome, Tome Tome, Tome Tome

         D                  Bm
Eu não disse que você ia dançar (então tome)
         Em                 A7
Eu não disse que você ia quebrar (então tome)    2x
         D                  Bm
Eu não disse que você ia mecher (então tome)
         Em                     A7
Saiddy Bamba trás uma nova pra você (então tome)

            D     Bm          Em
Quando eu meter você vai se jogar
            D     Bm          A7
Quando eu meter você vai se jogar
            D     Bm          Em
Quando eu meter você vai se jogar
            D     Bm          A7
Quando eu meter você vai se jogar

Tome Tome, Tome Tome, Tome, Tome Tome, Tome Tome, uuh
D Bm Em A7
Tome Tome, Tome Tome, Tome, Tome Tome, Tome Tome, uuh
Tome Tome, Tome Tome, Tome, Tome Tome, Tome Tome, uuh
Tome Tome, Tome Tome, Tome, Tome Tome, Tome Tome, uuh

Rafael

Solo

Parte 1
   D          Bm           Em          A7
E|-----------------------------------------------|
B|10----10-10----10-10----10----10-10----10-10---|
G|-----------------------------------------------| 2x
D|---12-------12-------12----11-------11-------11|
A|-----------------------------------------------|
E|-----------------------------------------------|

Parte 2
         D           Bm        Em          A7
E|---------------------|-------------------------|
B|10-10-12----10-10-10-|10-10-12----10-10-10-----|
G|---------------------|-------------------------| 2x
D|---------12----------|---------11--------------|
A|---------------------|-------------------------|
E|---------------------|-------------------------|

Uuh
Saiddy Bamba
Uuh
Uuh
Uuh
Uhh

         D                  Bm
Eu não disse que você ia dançar (então tome)
         Em                 A7
Eu não disse que você ia quebrar (então tome)    2x
         D                  Bm
Eu não disse que você ia mecher (então tome)
         Em                     A7
Saiddy Bamba trás uma nova pra você (então tome)

            D     Bm          Em
Quando eu meter você vai se jogar
            D     Bm          A7
Quando eu meter você vai se jogar
            D     Bm          Em
Quando eu meter você vai se jogar
            D     Bm          A7
Quando eu meter você vai se jogar

Tome Tome, Tome Tome, Tome, Tome Tome, Tome Tome, uuh
D Bm Em A7
Tome Tome, Tome Tome, Tome, Tome Tome, Tome Tome, uuh
Tome Tome, Tome Tome, Tome, Tome Tome, Tome Tome, uuh
Tome Tome, Tome Tome, Tome, Tome Tome, Tome Tome, uuh (2x)

Saiddy Bamba

            D     Bm          Em
Quando eu meter você vai se jogar
            D     Bm          A7
Quando eu meter você vai se jogar

D Bm Em A7
Tome Tome, Tome Tome, Tome, Tome Tome, Tome Tome, uuh
Acordes para:
    Colaboração e revisão:
    • Natan Maciel

    0 comentários

    mostrar mais comentários

    Conseguiu tocar?

    2 tocaram 0 ainda não

    Grave um vídeo tocando Tome Tome e mande pra gente!

    00:00 / 00:00
    outros vídeos desta música
    repetir qualidade Automático
    Outro vídeos desta música
    00:00 / 00:00
    Automático
    OK