Cifra Club

Schê

Salz Band

Cifra: Principal
exibições 5.973
Tom: D
Intro: D7M D D7M G

      D7M               D         D7M             G
E|------------------------------------------------------------|
B|-x-x-x-x--x-x-x-x--x-x-x-x-x-x-x-x--x-x-x-x--x--x--x--x--x--|
G|-6-6-6-6--6-x-6-6--7-7-7-7-7-6-6-6--6-x-6-6--12-12-12-12-12-|
D|-7-7-7-7--7-x-7-7--7-7-7-7-7-7-7-7--7-x-7-7--12-12-12-12-12-|
A|-5-5-5-5--5-x-5-5--5-5-5-5-5-5-5-5--5-x-5-5--10-10-10-10-10-|
E|-x-x-x-x--x-x-x-x--x-x-x-x-x-x-x-x--x-x-x-x--x--x--x--x--x--|

D7M
   Ele é o Rei da Glória
D7M             D7M                    G
   Ele me salvou, me escolheu pra ser amigo seu

D7M                D7M
   Mudou minha vida, tudo novo fez
D7M               G
   Através da sua graça sem fim

      Bm                          D
Meu passado não pode mais me condenar
    Bm                                  D E
Sua graça e seu amor minha vida encheram

Refrão:

    A                            G
Vou dançar na sua glória, vou provar do seu amor
       A                  G
E|---------------------------------------|
B|---------------------------------------|
G|--6-6-6-x-6-6-66666--4-4-4-x-4-4-44444-|
D|--7-7-7-x-7-7-77777--5-5-5-x-5-5-55555-|
A|--7-7-7-x-7-7-77777--5-5-5-x-5-5-55555-|
E|--5-5-5-x-5-5-55555--3-3-3-x-3-3-33333-|

            F#m        D
pois eu sou teu eu sou totalmente Teu
      F#m    D
Acordes para:
    Composição: JhonmackColaboração e revisão:

    0 comentários

      mostrar mais comentários

      Conseguiu tocar?

      3tocaram0ainda não

      Grave um vídeo tocando Schê e mande pra gente!

      00:00 / 00:00
      outros vídeos desta música
      repetirqualidadeautomática
      Outro vídeos desta música
        00:00 / 00:00
        automática
        OK