Cifra Club

No Sleep

Sam Roberts

Cifra: Principal (violão e guitarra)
tom: F
Album: We Were Born In A Flame
Tabbed by: Cayeff

Please feel free to rate or provide any suggestions to the tab. 


Intro:

        Figure 1:

        e|----------------------------------------------------------------|
        B|------------------------------------------------13------13------|
        G|14------14------14------15------14------14----------------------|
        D|----12------12------12------12------12------12------12------12--|
        A|----------------------------------------------------------------|
        E|----------------------------------------------------------------|

        e|----------------------------------------------------------------|
        B|----------------------------------------------------------------|
        G|14------14------14------15------14------14------14------14------|
        D|----12------12------12------12------12------12------12------12--|
        A|----------------------------------------------------------------|
        E|----------------------------------------------------------------|

After playing this twice the acoustic guitar comes in that plays these chords.

  Dm,    G,      F,     Am
e|1|   e|3|   e| 1 |  e|0|
B|3|   B|0|   B| 1 |  B|1|
G|2|   G|0|   G| 2 |  G|2|
D|0|   D|0|   D| 3 |  D|2|
A|x|   A|2|   A|(3)|  A|0|
E|x|   E|3|   E|(1)|  E|x|

Listen to the song to figure out the rhythm.

Verse 1: Same as intro

Chorus: Acoustic guitar plays F and Am chords.  Again, listen to the rhythm

Verse 2: Same as intro

Chorus: Same chorus as above.

Electric Solo:

Guitar 1:

e|-------------------------------------------------------------|
B|-------------------------------------------------------------|
G|----10-12-10-13--13--13-12-10---------10--------12-13-12-----|
D|12----------------------------10-12-------10-11----------12--|
A|-------------------------------------------------------------|
E|-------------------------------------------------------------|

e|---------------------------------------------------------------|
B|10--13------------10-----10-10---------------------------------|
G|--------12-10-----------------------12--12-10------12--12-10---|
D|--------------12------12-------12-------------12-------------12|
A|---------------------------------------------------------------|
E|---------------------------------------------------------------|

This is played once during the solo and
twice during the third verse "Elle me regarder" 
Then the acoustic solo follows

Guitar 2:

e|----------5---------------5---------------5---------------5---5-|
B|--6---6-------8---6---6-------8---6---6-6---6-8---6---6-6---6---|
G|7---7---7---7---5---5---6---6---7---7-----------7---7-----------| 
D|----------------------------------------------------------------|
A|----------------------------------------------------------------|
E|----------------------------------------------------------------|

Acoustic Solo:

Figure 1, and the acoustic chord rhythm from the intro 
is played together with the following solo.

e|---------------------------------------------------------------------------------|
B|---------------------------------------------------------------------------------|
G|-----10-------10--------10-9-10-12-------10-------10-------10h12p10-13--12-------|
D|12----------------------------------12-------------------------------------13-13-|
A|---------13-------12-------------------------13-------12-------------------------|
E|---------------------------------------------------------------------------------|

e|13--12-12-12--10-10-10-----------------------------12--12--|
B|------------------------13-13-13--10--10---10--13----------|
G|-----------------------------------------------------------|
D|-----------------------------------------------------------|
A|-----------------------------------------------------------|
E|-----------------------------------------------------------|

e|13--12-12-12--10-10-10--------------------------------------------|
B|------------------------13-13-13--10--10------10-13-10------------|
G|-------------------------------------------12----------12---12--10|
D|------------------------------------------------------------------|
A|------------------------------------------------------------------|
E|------------------------------------------------------------------|

Chorus: Same chorus as above.
00:00 / 00:00
Outros vídeos desta música
Repetir
Outros vídeos desta música
Composição de Sam Roberts
364 exibições
    • ½ Tom
    • A
    • Bb
    • B
    • C
    • Db
    • D
    • Eb
    • E
    • F
    • F#
    • G
    • Ab
  • Adicionar à lista

    0 comentários

    Ver todos os comentários

    Entre para oCifra Club PRO

    Tenha acesso a benefícios exclusivos no App e no Site

    • Chega de anúncios

    • Prioridade de compra em lançamentos

    • Mais recursos no app do Afinador

    • Atendimento Prioritário

    • Descontos nos produtos Cifra Club

    • Ajude a produzir mais conteúdo

    00:00 / 00:00

    Cifra Club Pro

    Aproveite o Cifra Club com benefícios exclusivos e sem anúncios
    Cifra Club Pro
    Aproveite o Cifra Club com benefícios exclusivos e sem anúncios
    OK