Cifra Club

Domingo

Samuel Mizrahy

Cifra: Principal (violão e guitarra)
tom: C
[Intro] Am  C  F

E|---------------------------------------|
B|8/10-8--------------8/10-8-------------|
G|-------9-7-9-5h7-----------9-9-9\7p5---|
D|-----------------7-------------------7-|
A|---------------------------------------|
E|---------------------------------------|

E|---------------------------------|
B|---------------------------------|
G|7/9-5h7p5---5-7/9-5~-------------|
D|----------7----------7-------5h7-|
A|-------------------------5h7-----|
E|---------------------------------|

E|---------------------------10b12-8-----------|
B|---------------------8/10----------10---8-10-|
G|7/9-5h7p5---5-7/9-5~------------------9------|
D|----------7----------------------------------|
A|---------------------------------------------|
E|---------------------------------------------|

Am            C
E esse mundo, muito louco, desvairado
F
Quase sempre é mesmo assim
             Am
É todo mundo se pegando 
           C
Todo mundo se matando
             F
Porque lá no fundo cada um só pensa em si
Am                   C
E eu olhando aqui de fora 
                 F
Paro para olhar aqui dentro de mim
                Am                       C
Se o próximo tá próximo eu fecho os meus olhos
                F
Dou as costas e finjo que não vi

         Am               C               F
Mas no domingo eu vou à igreja ouvir o meu pastor
            Am           C                F
Eu canto aleluia e cumprimento com a paz do senhor
          Am          C           F
Meu ministério não é sério, não terá valor
                 Am C F
Se eu não tiver amor
Am C F
Amor

[Solo] Am  C  F

E|-----8-10b12--------------------------------|
B|8h10---------10---8-------------------------|
G|----------------9---9-7\5---5-7---5---------|
D|--------------------------7-----7---7---5h7-|
A|--------------------------------------7-----|
E|--------------------------------------------|

E|-------------------------------------------8-8------------------|
B|----------8---------------10-------------------8-10-8-----------|
G|----5-7/9---9\7-5---5-7/9----9\7-5---5-7/9------------9-7\5---5-|
D|5-7---------------7----------------7------------------------7---|
A|----------------------------------------------------------------|
E|----------------------------------------------------------------|

E|----------------------------------------------------------------|
B|------------------5-------8/10-------8/13-13p10----10-13-13b15--|
G|----7b9r7-5-7p5h7---7p5h7------7p5h7------------12--------------|
D|5h7-------------------------------------------------------------|
A|----------------------------------------------------------------|
E|----------------------------------------------------------------|

E|13b15-13-12-10----10---------------------------------------------------------------------------|
B|---------------13----13b15r13p10---10-13-13b15-13b15-13b15-13b15-15b17-15b17-15b17r15-13-15----|
G|---------------------------------12---------------------------------------------------------14-|
D|-----------------------------------------------------------------------------------------------|
A|-----------------------------------------------------------------------------------------------|
E|-----------------------------------------------------------------------------------------------|
00:00 / 00:00
Outros vídeos desta música
Repetir
Outros vídeos desta música
Compositor não encontrado.
Colaboração e revisão:
  • Pedro Sanches
  • Caique Moretto
195 exibições
    • ½ Tom
    • A
    • Bb
    • B
    • C
    • Db
    • D
    • Eb
    • E
    • F
    • F#
    • G
    • Ab
  • Adicionar à lista

    0 comentários

    Ver todos os comentários

    Entre para oCifra Club PRO

    Tenha acesso a benefícios exclusivos no App e no Site

    • Chega de anúncios

    • Prioridade de compra em lançamentos

    • Mais recursos no app do Afinador

    • Atendimento Prioritário

    • Descontos nos produtos Cifra Club

    • Ajude a produzir mais conteúdo

    00:00 / 00:00

    Cifra Club Pro

    Aproveite o Cifra Club com benefícios exclusivos e sem anúncios
    Cifra Club Pro
    Aproveite o Cifra Club com benefícios exclusivos e sem anúncios
    OK