Cifra Club

Aprenda

Closer

Sanctus Real

Cifra: Principal (violão e guitarra)
Já pensou em usar uma coleção de roupas do Cifra Club? Responda as perguntas abaixo e nos ajude nessa missão! →
tom: F# (forma dos acordes no tom de G) Afinação: Eb Ab Db Gb Bb Eb
Verso:
C      G      Em      C    D
I'm not satisfied in this lifetime
C      G      Em      C    D
I'm following you to the other side
C      G      Em      C    D
There's nothing that can change my mind
C      G      Em      C    D
You're all I need

Interlúdio: C  G  C  D

Verso:
C      G      Em      C    D
You're the only tie that binds my heart
C      G      Em      C    D
Away from you I'm falling apart
C      G      Em      C    D
We need to be closer than we are
C      G      Em      C    D
You're all I need

Refrão:
C        G         C       D
So what can I do to get closer?
C        G         C       D
I know there is more my heart can bear
C          G            D
I give you control 'cause I need you
C       D       G
To take me there

Verso:
C        G          Em          C    D
Like a bird flying south I'm seeking you out
C        G          Em         C    D
And there's no rope that can tie me down
C        G        Em        C    D
I'm running home, I'm a slave set free
C    G   Em    C    D
You're all I need

Ponte:
Em7  Bm7
I am waiting
Bm7    Bm7  
Draw me closer
Em7   D
I am waiting
D9   C
Make me stronger
Solo:
Eb|----------------------------------|----------------------------------|
Bb|--12------12------12------12--13--|--13------13------12------12------|
Gb|------12------12------12----------|------12------12------12------12--|
Db|----------------------------------|----------------------------------|
Ab|----------------------------------|----------------------------------|
Eb|----------------------------------|----------------------------------|

Eb|----------------------------------|--------------------------|
Bb|--12------12------12------12------|--------------------------|
Gb|------12------12------12------12--|---14------12-------------|
Db|----------------------------------|--------------------------|
Ab|----------------------------------|--------------------------|
Eb|----------------------------------|--------------------------|

Eb|--12-------12------------------|------------------------15--17--|
Bb|--15b------15b------15--17-----|--15----15--17--15--17b---------|
Gb|-------------------------------|--------------------------------|
Db|-------------------------------|--------------------------------|
Ab|-------------------------------|--------------------------------|
Eb|-------------------------------|--------------------------------|

Eb|--17--15--15--17--19--17--17------|--17--19--19--20--20--19--19--17-15-|
Bb|----------------------------------|------------------------------------|
Gb|----------------------------------|------------------------------------|
Db|----------------------------------|------------------------------------|
Ab|----------------------------------|------------------------------------|
Eb|----------------------------------|------------------------------------|
Composição de Chris Rohman / Matt Hammitt
Colaboração e revisão:
  • Raffael Sousa
193 exibições
    • ½ Tom
    • A
    • Bb
    • B
    • C
    • Db
    • D
    • Eb
    • E
    • F
    • F#
    • G
    • Ab
  • Adicionar à lista

    0 comentários

    Ver todos os comentários
    00:00 / 00:00
    Outros vídeos desta música
    Repetir Qualidade Automático
    Outros vídeos desta música
    00:00 / 00:00
    Automático

    Cifra Club Pro

    Aproveite o Cifra Club com benefícios exclusivos e sem anúncios
    Cifra Club Pro
    Aproveite o Cifra Club com benefícios exclusivos e sem anúncios
    OK