Cifra Club

Aprenda

Não Tem Saída

Sandra de Sá

Cifra: Principal (violão e guitarra)
tom: D
E|--------------|--------------|--------------|--------------|--------------|
B|--------------|--------------|--------------|--------------|--------------|
G|--------------|--------------|--------------|--------------|--------------|
D|--------------|--------------|--------------|--------------|--------------|
A|--------------|--------------|--------------|--------------|--------------|
E|--------------|--------------|--------------|--------------|--------------|

E|--------------|--------------|--------------|--------------|--------------|
B|--------------|--------------|--------------|--------------|--------------|
G|--------------|--------------|--------------|--------------|--------------|
D|--------------|--------------|--------------|--------------|--------------|
A|--------------|--------------|--------------|--------------|--------------|
E|--------------|--------------|--------------|--------------|--------------|

E|--------------|--------------|--------------|--------------|--------------|
B|--------------|--------------|--------------|--------------|--------------|
G|--------------|--------------|--------------|--------------|--------------|
D|--------------|--------------|--------------|--------------|--------------|
A|--------------|--------------|--------------|--------------|--------------|
E|--------------|--------------|--------------|--------------|--------------|

E|--------------|--------------|--------------|--------------|--------------|
B|--------------|--------------|--------------|--------------|--------------|
G|--------------|--------------|--------------|--------------|--------------|
D|--------------|--------------|--------------|--------------|--------------|
A|--------------|--------------|--------------|--------------|--------------|
E|--------------|--------------|--------------|--------------|--------------|

E|--------------|----------------|-2-3-2-3-2---3-2-|-----------------|
B|-0----3-------|----------------|-----------------|-----5-3---------|
G|---5----------|--------------4-|-----------------|-------------4-5-|
D|--------------|----------------|-----------------|-----------------|
A|--------------|----------------|-----------------|-----------------|
E|--------------|----------------|-----------------|-----------------|

E|--------------|--------------|-0---0----0----0-|-----------------|
B|-----3-3------|--------------|---7---7-----7---|-6---4-----------|
G|----------5---|--------------|-----------------|-------4-------0-|
D|--------------|--------------|-----------------|-------------7---|
A|--------------|--------------|-----------------|-----------------|
E|--------------|--------------|-----------------|-----------------|

E|--------------|--------------|-0---0---0-----0-|-------0-------0-|
B|-------0------|--------------|---7---7-----7---|-----7-------7---|
G|--------------|--------------|-----------------|-----------------|
D|-----7--------|--------------|-----------------|-----------------|
A|--------------|--------------|-----------------|-----------------|
E|--------------|--------------|-----------------|-----------------|

E|--------------|--------------|--------------|--------------|--------------|
B|-----3-3------|--------------|--------------|--------------|-0----3-------|
G|--------------|--------------|--------------|--------------|---5----------|
D|--------------|--------------|--------------|--------------|--------------|
A|--------------|--------------|--------------|--------------|--------------|
E|--------------|--------------|--------------|--------------|--------------|

E|--------------|-2-3-2-3--2--3-2-|-----------------|--------------|
B|--------------|-----------------|--5---3----------|--3-----------|
G|--------------|-----------------|-------------4-5-|------5-------|
D|--------------|-----------------|-----------------|--------------|
A|--------------|-----------------|-----------------|--------------|
E|--------------|-----------------|-----------------|--------------|

E|--------------|-0---0---0-----0-|-----------------|--------------|
B|--------------|---7---7-----7---|-----4-0---------|-------0------|
G|--------------|-----------------|---------------0-|--------------|
D|--------------|-----------------|-------------7---|-----7--------|
A|--------------|-----------------|-----------------|--------------|
E|--------------|-----------------|-----------------|--------------|

E|----------------|-0---0----0------|----------------|--------------|
B|--------------0-|---7---7-----3-1-|-----0----0-----|--------------|
G|----------------|-----------------|-------2------2-|--0---0-------|
D|----------------|-----------------|----------------|--------------|
A|----------------|-----------------|----------------|--------------|
E|----------------|-----------------|----------------|--------------|

E|----------------|-5---------------|--------------|-7-------8---5-|
B|---------0------|-8-------------8-|--------------|---------------|
G|-----------5--7-|---10------------|--------------|---------------|
D|----------------|-----------------|--------------|---------------|
A|----------------|-----------------|--------------|---------------|
E|----------------|-----------------|--------------|---------------|

E|-----------------|--5---7------5-|-------------0---|--3-2--3---2--3-2-|
B|-------------7-8-|---------------|-----8---------7-|------------------|
G|-----------------|---------------|-----------------|------------------|
D|-----------------|---------------|-----------------|------------------|
A|-----------------|---------------|-----------------|------------------|
E|-----------------|---------------|-----------------|------------------|

E|--5---3---2---0-|--0------------0-|--------------|--7------8---5-|
B|----------------|-------------0---|--------------|---------------|
G|----------------|------7----------|--7-----------|---------------|
D|----------------|-----------------|--------------|---------------|
A|----------------|-----------------|--------------|---------------|
E|----------------|-----------------|--------------|---------------|

E|-----------------|-5----7------5-|-------------0---|-3-2--3-2--3---2-|
B|-------------7-8-|---------------|-----8---------7-|-----------------|
G|-----------------|---------------|-----------------|-----------------|
D|-----------------|---------------|-----------------|-----------------|
A|-----------------|---------------|-----------------|-----------------|
E|-----------------|---------------|-----------------|-----------------|

E|---------------2-|-3-2--3---2-3--2-|--5---3---2--5-5-|------3-------|
B|--1----------5---|-----------------|-----------------|--------------|
G|-----------------|-----------------|-----------------|--------------|
D|-----------------|-----------------|-----------------|--------------|
A|-----------------|-----------------|-----------------|--------------|
E|-----------------|-----------------|-----------------|--------------|

E|--------------|--------------|--------------|--------------|--------------|
B|--------------|--------------|--------------|--------------|--------------|
G|--------------|--------------|--------------|--------------|--------------|
D|--------------|--------------|--------------|--------------|--------------|
A|--------------|--------------|--------------|--------------|--------------|
E|--------------|--------------|--------------|--------------|--------------|

E|--------------|--------------|--------------|--------------|--------------|
B|--------------|--------------|--------------|--------------|--------------|
G|--------------|--------------|--------------|--------------|--------------|
D|--------------|--------------|--------------|--------------|--------------|
A|--------------|--------------|--------------|--------------|--------------|
E|--------------|--------------|--------------|--------------|--------------|

E|--------------|--------------|-----------------|----------------|--------------|
B|--------------|--------------|-3-4-3-4-----4-3-|----------------|--------------|
G|-0----3-------|--------------|---------7-------|-----5-3--0-----|--3-----------|
D|---6----------|--------------|-----------------|--------------6-|------6-------|
A|--------------|--------------|-----------------|----------------|--------------|
E|--------------|--------------|-----------------|----------------|--------------|

E|--------------|------------------|----------------|--------------|
B|--------------|---3----3-----3---|-----0----------|--------------|
G|--------------|-5----5----5----5-|-------0--------|-------0------|
D|--------------|------------------|----------3---1-|-----3--------|
A|--------------|------------------|----------------|--------------|
E|--------------|------------------|----------------|--------------|

E|--------------|-----------------|-----------------|--------------|
B|--------------|---3---3-----3---|-----3-------3---|--------------|
G|--------------|-5---5---5-----5-|-------5-------5-|-----3-3------|
D|--------------|-----------------|-----------------|--------------|
A|--------------|-----------------|-----------------|--------------|
E|--------------|-----------------|-----------------|--------------|

E|--------------|--------------|--------------|--------------|--------------|
B|--------------|--------------|--------------|--------------|--------------|
G|--------------|--------------|--------------|-0----3-------|--------------|
D|--------------|--------------|--------------|---6----------|--------------|
A|--------------|--------------|--------------|--------------|--------------|
E|--------------|--------------|--------------|--------------|--------------|

E|-----------------|----------------|--------------|--------------|
B|---4---4-3---4-3-|----------------|--------------|--------------|
G|-7---7-----------|--5---3---0---1-|--3---1-------|--------------|
D|-----------------|----------------|--------------|--------------|
A|-----------------|----------------|--------------|--------------|
E|-----------------|----------------|--------------|--------------|

E|------------------|-----------------|--------------|--------------|
B|-1-3--1-3--1--3-1-|-----0-----------|--------------|--------------|
G|------------------|-------0---------|-------0------|--------------|
D|------------------|-------------3-1-|-----3--------|--------------|
A|------------------|-----------------|--------------|--------------|
E|------------------|-----------------|--------------|--------------|

E|------------------|-----------------|--------------|----------------|
B|-1-3--1-3--1------|-----------------|--------------|----------------|
G|--------------3-1-|-----0-----------|--------------|------0---1---3-|
D|------------------|-------3-----1-1-|--------------|----------------|
A|------------------|-----------------|--------------|----------------|
E|------------------|-----------------|--------------|----------------|

E|-1--------------|--------------|-3-------4---1-|-----------------|
B|--------------4-|--------------|---------------|-------------3-4-|
G|----------------|--------------|---------------|-----------------|
D|----------------|--------------|---------------|-----------------|
A|----------------|--------------|---------------|-----------------|
E|----------------|--------------|---------------|-----------------|

E|--1---3------1-|-----------------|------------------|--1-------------|
B|---------------|-----4-------1-3-|--4-3--4---3--4-3-|------4---3---1-|
G|---------------|-----------------|------------------|----------------|
D|---------------|-----------------|------------------|----------------|
A|---------------|-----------------|------------------|----------------|
E|---------------|-----------------|------------------|----------------|

E|-----------------|--------------|--3------4---1-|-----------------|
B|--1------------1-|--------------|---------------|-------------3-4-|
G|------3------0---|--3-----------|---------------|-----------------|
D|-----------------|--------------|---------------|-----------------|
A|-----------------|--------------|---------------|-----------------|
E|-----------------|--------------|---------------|-----------------|

E|-1----3------1-|-----------------|-----------------|-----------------|
B|---------------|-----4-------1-3-|-4-3--4-3--4---3-|-------------1-3-|
G|---------------|-----------------|-----------------|--1--------------|
D|---------------|-----------------|-----------------|-----------------|
A|---------------|-----------------|-----------------|-----------------|
E|---------------|-----------------|-----------------|-----------------|

E|-----------------|--1----------1-1-|--------------|--------------|
B|-4-3--4---3-4--3-|------4---3------|------4-------|--------------|
G|-----------------|-----------------|--------------|--------------|
D|-----------------|-----------------|--------------|--------------|
A|-----------------|-----------------|--------------|--------------|
E|-----------------|-----------------|--------------|--------------|

E|-3-------4---1-|-----------------|--1---3------1-|-----------------|
B|---------------|-------------3-4-|---------------|-----4-------1-3-|
G|---------------|-----------------|---------------|-----------------|
D|---------------|-----------------|---------------|-----------------|
A|---------------|-----------------|---------------|-----------------|
E|---------------|-----------------|---------------|-----------------|

E|------------------|--1-------------|-----------------|--------------|
B|--4-3--4---3--4-3-|------4---3---1-|--1------------1-|--------------|
G|------------------|----------------|------3------0---|--3-----------|
D|------------------|----------------|-----------------|--------------|
A|------------------|----------------|-----------------|--------------|
E|------------------|----------------|-----------------|--------------|

E|--3------4---1-|-----------------|-1----3------1-|-----------------|
B|---------------|-------------3-4-|---------------|-----4-------1-3-|
G|---------------|-----------------|---------------|-----------------|
D|---------------|-----------------|---------------|-----------------|
A|---------------|-----------------|---------------|-----------------|
E|---------------|-----------------|---------------|-----------------|

E|-----------------|-----------------|-----------------|--1----------1-1-|
B|-4-3--4-3--4---3-|-------------1-3-|-4-3--4---3-4--3-|------4---3------|
G|-----------------|--1--------------|-----------------|-----------------|
D|-----------------|-----------------|-----------------|-----------------|
A|-----------------|-----------------|-----------------|-----------------|
E|-----------------|-----------------|-----------------|-----------------|

E|--------------|--------------|--------------|--------------|--------------|
B|------4-------|--------------|--------------|--------------|--------------|
G|--------------|--------------|--------------|--------------|--------------|
D|--------------|--------------|--------------|--------------|--------------|
A|--------------|--------------|--------------|--------------|--------------|
E|--------------|--------------|--------------|--------------|--------------|

E|--------------|--------------|--------------|--------------|--------------|
B|--------------|--------------|--------------|--------------|--------------|
G|--------------|--------------|--------------|--------------|--------------|
D|--------------|--------------|--------------|--------------|--------------|
A|--------------|--------------|--------------|--------------|--------------|
E|--------------|--------------|--------------|--------------|--------------|

E|--------------|
B|--------------|
G|--------------|
D|--------------|
A|--------------|
E|--------------|

Compositor não encontrado.
Colaboração e revisão:
  • Helon Oliveira
2.764 exibições
    • ½ Tom
    • A
    • Bb
    • B
    • C
    • Db
    • D
    • Eb
    • E
    • F
    • F#
    • G
    • Ab
  • Adicionar à lista

    0 comentários

    Ver todos os comentários

    Conseguiu tocar?

    0 Tocaram 0 Ainda não

    Grave um vídeo tocando Não Tem Saída e nos envie!

    00:00 / 00:00
    Outros vídeos desta música
    Repetir Qualidade Automático
    Outros vídeos desta música
    00:00 / 00:00
    Automático

    Cifra Club Pro

    Aproveite o Cifra Club com benefícios exclusivos e sem anúncios
    Cifra Club Pro
    Aproveite o Cifra Club com benefícios exclusivos e sem anúncios
    OK