Cifra Club

Zaido Solo

Sandwich

Cifra: Principal (violão e guitarra)
tom: Bb
Tabber: Rodel F. Fariñas
Friendster account: *
contact #: 09189055868/09196998754

Intro:

e-----------------------------------------------------------I
b--------55----------------------55----99----99-------------I
g-----55----55-77-55-44-55----55----55----55----55----------I
d--77----------------------77-------------------------------I
a-----------------------------------------------------------I
E-----------------------------------------------------------I
(2x)

e---------------------------------------------------------------------------I
b---------------------------------------------------------------------------I
g---------------------------------------------------------------------------I
d---------------------------------------------------------------------------I
a---------------------------------------------------------------------------I
E---555-555--333-333--111-111-111-111---555-555--333-333--111-111-111-111---I

verse:

e-----------------------I
b-----------------------I
g-----------------------I
d-----------------------I
a-----------------------I
E--5-3-5--5-3-3-1-3-3---I

e----------------------------------------I
b----------------------------------------I
g----------------------------------------I
d----------------------------------------I
a----------------------------------------I
E--55-3-5-5-55-3-5--5-33-1-3-3-33-1------I  
(3x)

Outro:

e-----------------------------------------------------------I
b--------55----------------------55----99----99-------------I
g-----55----55-77-55-44-55----55----55----55----55----------I
d--77----------------------77-------------------------------I
a-----------------------------------------------------------I
E-----------------------------------------------------------I
(3x)

e-----------------------------------------------------------I
b--------55----------------------55----99----99-------------I
g-----55----55-77-55-44-55----55----55----55----5(hold)-----I
d--77----------------------77-------------------------------I
a-----------------------------------------------------------I
E-----------------------------------------------------------I
(2x)

e---------------------------------------------------------------------------I
b---------------------------------------------------------------------------I
g---------------------------------------------------------------------------I
d---------------------------------------------------------------------------I
a---------------------------------------------------------------------------I
E---555-555--333-333--111-111-111-111---555-555--333-333--111-111-111-111---I(2x)

[fin]
Compositor não encontrado.
178 exibições
    • ½ Tom
    • A
    • Bb
    • B
    • C
    • Db
    • D
    • Eb
    • E
    • F
    • F#
    • G
    • Ab
  • Adicionar à lista

    0 comentários

    Ver todos os comentários

    Conseguiu tocar?

    0 Tocaram 0 Ainda não

    Grave um vídeo tocando Zaido Solo e nos envie!

    00:00 / 00:00
    Outros vídeos desta música
    Repetir Qualidade Automático
    Outros vídeos desta música
    00:00 / 00:00
    Automático

    Cifra Club Pro

    Aproveite o Cifra Club com benefícios exclusivos e sem anúncios
    Cifra Club Pro
    Aproveite o Cifra Club com benefícios exclusivos e sem anúncios
    OK