Cifra Club

Zaido

Sandwich

Cifra: Principal (violão e guitarra)
tom: G
Chords by: Kokey

                    |========================|
                    |========================|

*Updated NA po to..Thanks!..

Tuning: Standard

Intro: 
e--------------------------|---------------------------|
b--------------------------|--------------88-----------|
g-----55-99-55-77-55-44-55-|-----55-99-55----55-99--77-| 2x
D--77----------------------|--77-----------------------|
A--------------------------|---------------------------|
E--------------------------|---------------------------|

Verse: G-F-D 

G--------------------------------------|
D--------------------------------------|
A--------------------5-3-5-55-5-3-5-55-| 4x
E--5-3-5-55-3-1-3-33-------------------|

PreChorus: G-A-B-F-C-B

(Rhythm)

E-------------------------------------------------------|
B-------------------------------------------------------|
G-------------------------------------------------------| 4x
D--5-5-5-5-5-5--7-7-7-9-9-9--3-3-3-3-3-3--10-10-10-9-9--|
A--5-5-5-5-5-5--7-7-7-9-9-9--3-3-3-3-3-3--10-10-10-9-9--|
E--3-3-3-3-3-3--5-5-5-7-7-7--1-1-1-1-1-1---8--8--8-7-7--|

(Bass)

G-------------------------------------------------------|
D-------------------------------------------------------|
A-------------------------------------------------------| 4x
E--3-3-3-3-3-3--5-5-5-7-7-7--1-1-1-1-1-1--8-8-8-7-7-7-7-|

Chorus: C-G-F-G-A-C

(Rhythm/Bass)

e--------------------------------------------|
b--------------------------------------------|
g--55555555----------------------------------|
D--55555555--55555555-33-3-55-5-77-7--8-8--8-|
A--33333333--55555555-33-3-55-5-77-7--8-8--8-|
E------------33333333-11-1-33-3-55-5-1010-10-|

                                            
e-------------------------------------------|
b-------------------------------------------|
g--55555555---------------------------------|
D--55555555-55555555-33333333-33333333------|
A--33333333-55555555-33333333-33333333------|
E-----------33333333-11111111-11111111------|

e-------------------------------------------|
b-------------------------------------------|
g--55555555---------------------------------|
D--55555555-55555555-33-3-55-5-77-7--8-8--8-|
A--33333333-55555555-33-3-55-5-77-7--8-8--8-|
E-----------33333333-11-1-33-3-55-5-1010-10-|

e-------------------------------------------|
g-------------------------------------------|
G--55555555----------10-9-5555555555555555--|
D--55555555-55555555-10-9-5555555555555555--|
A--33333333-55555555--8-7-3333333333333333--|
E-----------33333333------------------------|

(Repeat Intro)
(Repeat Prechorus)
(Repeat Chorus)

Outro: A-G-D 3x
       A-G-D-C 

(Lead)

E--------------------------|---------------------------|
B--------------------------|--------------88-----------|
G-----55-99-55-77-55-44-55-|-----55-99-55----55-99--77-| 4x
D--77----------------------|--77-----------------------|
A--------------------------|---------------------------|
E--------------------------|---------------------------|
Compositor não encontrado.
155 exibições
    • ½ Tom
    • A
    • Bb
    • B
    • C
    • Db
    • D
    • Eb
    • E
    • F
    • F#
    • G
    • Ab
  • Adicionar à lista

    0 comentários

    Ver todos os comentários

    Conseguiu tocar?

    0 Tocaram 0 Ainda não

    Grave um vídeo tocando Zaido e nos envie!

    00:00 / 00:00
    Outros vídeos desta música
    Repetir Qualidade Automático
    Outros vídeos desta música
    00:00 / 00:00
    Automático

    Cifra Club Pro

    Aproveite o Cifra Club com benefícios exclusivos e sem anúncios
    Cifra Club Pro
    Aproveite o Cifra Club com benefícios exclusivos e sem anúncios
    OK