Notificações Amigos pendentes

      Santana

      Corazon Espinado

      120.389 exibições
      Tom: D
      Introdução: Bm  F#7
      
      
      E|------------------------7--6~------------------------|
      B|---------------------7----------7--5-----------------|
      G|-----4h7p4---4~---7-------------------7--9b11-9b11~~-|
      D|-4h7-------7-----------------------------------------|
      A|-----------------------------------------------------|
      E|-----------------------------------------------------|
      
      
      E|-----------------------7-10p7----7~-------14--b19r18-|
      B|------------------7h10--------10------15-------------|
      G|-b11r9-7-6-7-9~--------------------------------------|
      D|-----------------------------------------------------|
      A|-----------------------------------------------------|
      E|-----------------------------------------------------|
      
      
      E|-14---------------14---------14-------14-------14----|
      B|----17--15--17b19------17b19----17b19----17b19-------|
      G|-----------------------------------------------------|
      D|-----------------------------------------------------|
      A|-----------------------------------------------------|
      E|-----------------------------------------------------|
      
      
      E|-----------------------------------------------------|
      B|-17-14-15-15-17~--15-14-14~--------------------------|
      G|-----------------------------16~---------------------|
      D|-----------------------------------------------------|
      A|-----------------------------------------------------|
      E|-----------------------------------------------------|
      
      
      
      Primeira Parte:
      
      Bm            F#7
         Esa mujer me esta matando
      Bm                      F#7
         Me ha espinado el corazón
      Bm                           F#7
         Por más que trato de olvidarla
         Bm            F#7
      Mi alma no da razón
      
      (Riff 1)
      
      
      E|-----------------------------------------------------|
      B|-10--------------------------------------------------|
      G|--9b11r9p7--9--7--11p7-------------------------------|
      D|------------------------9~---------------------------|
      A|-----------------------------------------------------|
      E|-----------------------------------------------------|
      
      
      (Riff 2)
      
      
      E|-----------------------------------------------------|
      B|-----------------------------------------------------|
      G|-6--7--9~---9p7--------------------------------------|
      D|----------------9p7----------------------------------|
      A|-----------------------------------------------------|
      E|-----------------------------------------------------|
      
      
      Bm               F#7
         Mi corazón aplastado
      Bm                 F#7
         Dolido y abandonado
               Bm           F#7
      A ver a ver tu sabes dime mi amor
               Bm          F#7
      Cuanto amor y que dolor nos quedó
      
      (Riff 3)
      
      
      E|-----------------------------------------------------|
      B|-10--8--7--------------------------------------------|
      G|----------9--7--9--11p9h11~~-------------------------|
      D|-----------------------------------------------------|
      A|-----------------------------------------------------|
      E|-----------------------------------------------------|
      
      
      (Riff 4)
      
      
      E|-----------------------------------------------------|
      B|-----------------------------------------------------|
      G|----4--6--7~-----------------------------------------|
      D|-4---------------------------------------------------|
      A|-----------------------------------------------------|
      E|-----------------------------------------------------|
      
      
      
      Primeiro Refrão:
      
      Bm    F#7             Bm
      Ah ah ah corazón espinado
                      F#7
      Como duele me duele mamá
      Bm    F#7                   Bm
      Ah ah ah como me duele el amor
      
      
      E|--7-----7-7-7--7-----7-7-7--7------------------------|
      B|-10b12--------10b12--------10b12r10p7---7------------|
      G|--------------------------------------9---9-b11r9b11~|
      D|-----------------------------------------------------|
      A|-----------------------------------------------------|
      E|-----------------------------------------------------|
      
      
      
      Segunda Parte:
      
      Bm             F#7
         Como duele como duele el corazón
      Bm                        F#7
         Cuando uno es bien entregado
                 Bm                    F#7
      Pero no olvides mujer que algun día diras
            Bm           F#7
      Ay ay ay como me duele el amor
      
      (Riff 5)
      
      
      E|-----------------------------------------------------|
      B|-----------------------------------------------------|
      G|-6--7--9~~-------------------------------------------|
      D|-----------------------------------------------------|
      A|-----------------------------------------------------|
      E|-----------------------------------------------------|
      
      
      (Riff 6)
      
      
      E|-----------------------------------------------------|
      B|-7--------7------------------------------------------|
      G|----9b11-----9b11------------------------------------|
      D|-----------------------------------------------------|
      A|-----------------------------------------------------|
      E|-----------------------------------------------------|
      
      
      (Riff 7)
      
      
      E|-----------------------------------------------------|
      B|-10p7---7--------------------------------------------|
      G|------9---9b11--9p7----9p7---------------------------|
      D|--------------------9------9-------------------------|
      A|-----------------------------------------------------|
      E|-----------------------------------------------------|
      
      
      
      Segundo Refrão:
      
      Bm    F#7             Bm
      Ah ah ah corazón espinado
                      F#7
      Como duele me duele mamá
      Bm    F#7                   Bm
      Ah ah ah como me duele el amor
      
      
      E|-7~--------------------------------------------------|
      B|------10--7--10--7h10p7---7--------------------------|
      G|------------------------9---9b11---------------------|
      D|-----------------------------------------------------|
      A|-----------------------------------------------------|
      E|-----------------------------------------------------|
      
      
      E|---7-------------------------------------------------|
      B|-7---10-7------------7-------------------------------|
      G|----------9p11-9-7-----7-----------------------------|
      D|-------------------9------~--------------------------|
      A|-----------------------------------------------------|
      E|-----------------------------------------------------|
      
      
      Bm    F#7             Bm
      Ah ah ah corazón espinado
                      F#7
      Como duele me duele mamá
      Bm    F#7                   Bm
      Ah ah ah como me duele el amor
      
      
      E|-----------------------------------------------------|
      B|---------------------------17p15-17p15-17p15-17p15---|
      G|----6/7--6~---6/7\6----------------------------------|
      D|-9------------------9-9~-----------------------------|
      A|-----------------------------------------------------|
      E|-----------------------------------------------------|
      
      
      E|---------14---------14-------------------------------|
      B|-17b19-------17b19------17b19--15--17p15-------------|
      G|-----------------------------------------------------|
      D|-----------------------------------------------------|
      A|-----------------------------------------------------|
      E|-----------------------------------------------------|
      
      
      E|-----------------------------------------------------|
      B|-----15~-14~---14-14-14-14h15--14--------------------|
      G|-16~------------------------------16-16\-------------|
      D|---------------------------------------------7h9-7h9~|
      A|-----------------------------------------------------|
      E|-----------------------------------------------------|
      
      
      
      Solo: Bm  F#7
      
      (Parte 1)
      
      
      E|--7--------7------------------------9b10r9p7---------|
      B|-10b12~---10b12r10--7--------------------------------|
      G|-----------------------9b11r-b11~--------------------|
      D|-----------------------------------------------------|
      A|-----------------------------------------------------|
      E|-----------------------------------------------------|
      
      
      E|--7---...---7----------------------------------------|
      B|-10b12...--10b12-10p7--------------------------------|
      G|----------------------9b11--9~---7-9~\---------------|
      D|-----------------------------------------------------|
      A|-----------------------------------------------------|
      E|-----------------------------------------------------|
      
      
      (Parte 2)
      
      
      E|-7-10-10-7-10-10-7-10-10-7-10-7-10-7-10-7------------|
      B|-----------------------------------------------------|
      G|-----------------------------------------------------|
      D|-----------------------------------------------------|
      A|-----------------------------------------------------|
      E|-----------------------------------------------------|
      
      
      E|-9-12-12-9-12-12-9-12-12-9-12-9-12-9-12-9------------|
      B|-----------------------------------------------------|
      G|-----------------------------------------------------|
      D|-----------------------------------------------------|
      A|-----------------------------------------------------|
      E|-----------------------------------------------------|
      
      
      E|-14-14-14...----15--14--15--14--15--14--15b17r15--14-|
      B|-----------------------------------------------------|
      G|-----------------------------------------------------|
      D|-----------------------------------------------------|
      A|-----------------------------------------------------|
      E|-----------------------------------------------------|
      
      
      (Parte 3)
      
      
      E|-17b19-17b19~--17b19r17-14---------------------------|
      B|---------------------------17b19r-b19~~--------------|
      G|-----------------------------------------------------|
      D|-----------------------------------------------------|
      A|-----------------------------------------------------|
      E|-----------------------------------------------------|
      
      
      E|-17b19r17b19--17b19r17p14----14----------------------|
      B|--------------------------17----17b19----------------|
      G|-----------------------------------------------------|
      D|-----------------------------------------------------|
      A|-----------------------------------------------------|
      E|-----------------------------------------------------|
      
      
      E|-14---------14---------------------------------------|
      B|----15-17~-----15-17~--15p14-------------------------|
      G|-----------------------------16~\--16\---------------|
      D|-----------------------------------------------------|
      A|-----------------------------------------------------|
      E|-----------------------------------------------------|
      
      
      (Parte 4)
      
      
      E|-10p9p7-10p9p7-10p9p7...-12p10p9-12p10p9-12p10p9...--|
      B|-----------------------------------------------------|
      G|-----------------------------------------------------|
      D|-----------------------------------------------------|
      A|-----------------------------------------------------|
      E|-----------------------------------------------------|
      
      
      (Parte 5)
      
      
      E|-----------------------------------------------------|
      B|-x-x-x/...-------------------------------------------|
      G|-x-x-x/...-------------------------------------------|
      D|-x-x-x/...-------------------------------------------|
      A|-----------------------------------------------------|
      E|-----------------------------------------------------|
      
      
      
      Ponte:
      
      Em                     Bm
         Como me duele el olvido
      Em                    Bm
         Como duele el corazón
      D                      A
        Como me duele estar vivo
      Em                            F#7
         Sin tenerte a un lado amor
      
      (Riff 8)
      
      
      E|-----------------------------------------------------|
      B|-10--8--7-----------7--7~----------------------------|
      G|-----------9--7--9-----------------------------------|
      D|-----------------------------------------------------|
      A|-----------------------------------------------------|
      E|-----------------------------------------------------|
      
      
      (Parte 9)
      
      
      E|---7-9--10-9-7---------------------------------------|
      B|-7--------------7------------------------------------|
      G|------------------7----------------------------------|
      D|--------------------9--------------------------------|
      A|-----------------------------------------------------|
      E|-----------------------------------------------------|
      
      
      (Parte 10)
      
      
      E|-----------------------------------------------------|
      B|-----------------------8-----------------------------|
      G|----4/7-9--9p7--9--11-----11--9/11--7h9~p7-----------|
      D|-7---------------------------------------------------|
      A|-----------------------------------------------------|
      E|-----------------------------------------------------|
      
      
      (Parte 11)
      
      
      E|-----------------------------------------------------|
      B|-----------------------------------------------------|
      G|-----------------------------------------------------|
      D|-----------------------------------------------------|
      A|-7h9-7h9-7h9-7h9-7h9-7h9-----------------------------|
      E|-----------------------------------------------------|
      
      
      
      Final:
      
                   Bm   F#7
      Corazón espinado
                   Bm   F#7
      Corazón espinado
                   Bm   F#7
      Corazón espinado
                   Bm   F#7
      Corazón espinado
      
      (Solo Final)
        Composição: Fher OlveraColaboração e revisão:
        • v.inny
        • Wais

        Comentários 1

        140 .
        • albertiny albertiny: Em 04/02/2012 09:43

          posta a video-aula dessa musica.

        140 cancelar

        conseguiu tocar?

        Guilherme Fernando Gielow43 visualizações
          ver covers de outras músicas »
          0:00 / 0:00
          3 versões de violão dificuldade exibições contribuição e correção
          3 versões de guitarra dificuldade exibições contribuição e correção
          3 versões de cavaco dificuldade exibições contribuição e correção
          3 versões de teclado dificuldade exibições contribuição e correção
          2 versões de Guitar Proformatodownloadscontribuição
          play/pausefechar subir/descer velocidade
          6ª corda E5ª corda A4ª corda D3ª corda G2ª corda B1ª corda E
            acordes
            transcrição verificada v.inny instrutor de guitarra
            publicidade
            fechar
            ok