Cifra Club

Into The Night

Santana

Cifra: Principal (violão e guitarra)
tom: G
    Am        C          G          D
E|-------0---------0-----3----------2------0----------|
B|--1--1------1--1-------3----3-----3----3------------|
G|--2---------0-------------0---0---2--2--------------|
D|--2---------2---------------------------------------|
A|------------3----------2----------------------------|
E|-----------------------3----------------------------|

Primeira Parte:
Am                         C
Like a gift from the heavens, it was easy to tell,
G                       D
It was love from above, that could save me from hell,
Am                        C
She had fire in her soul it was easy to see,
G                       D
how the devil himself could be pulled out of me,
Am                          C
There were drums in the air as she started to dance,
G                        D
Every soul in the room keeping time with there hands,

And we sang…

Refrão:
Am       C
Ay oh ay oh ay oh ay,
G                  D
And the voices bang like the angels sing,

We're singing…
Am         C
away, away, away
G                  D
And we danced on into the night,
Am
away, away, away
C
away, away, away
G                  D
And we danced on into the night,

Am                         C
Like a piece to the puzzle that falls into place,
G                       D
You could tell how we felt from the look on our faces,
Am                        C
we was spinning in circles with the moon in our eyes,
G                       D
The room left them moving between you and I,
Am                          C
We forgot where we were and we lost track of time,
G                        D
And we sang to the wind as we danced through the night,

And we sang…

Refrão:
Am       C
Ay oh ay oh ay oh ay,
G                  D
And the voices bang like the angels sing,

We're singing…
Am         C
away, away, away
G                  D
And we danced on into the night,
Am
away, away, away
C
away, away, away
G                  D
And we danced on into the night,
E|----------------------------------------------------|
B|----------------5--------------10/8~-10-------------|
G|-5-5p4-----5--7---7^-5~~5/9-12----------12--9--75--|
D|-------7-5------------------------------------------|
A|----------------------------------------------------|
E|----------------------------------------------------|

E|----------------------------------------------------|
B|------------------10--------------------------------|
G|--------9--9/7~~-----7~-7~-7~-----7--7--5--4--------|
D|-7-7-10---------------------------------------7--7~-|
A|----------------------------------------------------|
E|----------------------------------------------------|

Am                         C
Like a gift from the heavens, it was easy to tell,
G                       D
It was love from above, that could save me from hell,
Am                        C
She had fire in her soul it was easy to see,
G                       D
how the devil himself could be pulled out of me,
Am                          C
There were drums in the air as she started to dance,
G                        D
Every soul in the room keeping time with there hands,

Refrão 2x:
Am       C
Ay oh ay oh ay oh ay,
G                  D
And the voices bang like the angels sing,

We're singing…
Am         C
away, away, away
G                  D
And we danced on into the night,
Am
away, away, away
C
away, away, away
G                  D
And we danced on into the night,
Composição de Chad Kroeger
Colaboração e revisão:
  • Rainier Rocha
  • Synyster Gates
  • William Guimarães
76.708 exibições
    • ½ Tom
    • A
    • Bb
    • B
    • C
    • Db
    • D
    • Eb
    • E
    • F
    • F#
    • G
    • Ab
  • Adicionar à lista

    0 comentários

    Ver todos os comentários
    00:00 / 00:00
    Outros vídeos desta música
    Repetir Qualidade Automático
    Outros vídeos desta música
    00:00 / 00:00
    Automático

    Cifra Club Pro

    Aproveite o Cifra Club com benefícios exclusivos e sem anúncios
    Cifra Club Pro
    Aproveite o Cifra Club com benefícios exclusivos e sem anúncios
    OK