Cifra Club

Oye Como Va

Santana

Cifra: Principal (violão e guitarra)
tom: G
            TOM: LÁ DÓRICO

Intro 4x: Am7  D7(9)

Tema a:

   Am7            D7(9)
E|---------7-8-10-7-------------------------
B|-10---10----------8/10~-------------------
G|------------------------------------------
D|------------------------------------------
A|------------------------------------------
E|------------------------------------------

   Am7             D7(9)
E|---------7-8-10-7-------------------------
B|-10---10----------8-10--------------------
G|-----------------------9\7~---7p5---------
D|------------------------------------------
A|------------------------------------------
E|------------------------------------------

Riff 1:

   Am7            D7(9)
E|------------------------------------------
B|-5---5-5---5-5-5-----5---7---7------------
G|-5---5-5---5-5-5-----5---7---7------------
D|-7---7-7---7-7-7---7---7---7--------------
A|------------------------------------------
E|------------------------------------------

   Am7
E|------------------------------------------
B|-5---5---5-5---7---7---7\-----------------
G|-5---5---5-5---7---7---7\-----------------
D|-7---7---7-7-----7-----7\-----------------
A|------------------------------------------
E|------------------------------------------

Estrofe 2x:
   Am7
   Oye como va
D7(9)
   Mi ritmo
   Am7
   Bueno pa gozar
D7(9)
   Mulata

Riff:

   Am7            D7(9)
E|------------------------------------------
B|-5---5-5---5-5-5-----5---7---7------------
G|-5---5-5---5-5-5-----5---7---7------------
D|-7---7-7---7-7-7---7---7---7--------------
A|------------------------------------------
E|------------------------------------------

Tema b:

   Am7            D7(9)
E|------------------------------------------
B|-------5-8-5-8-7--------------------------
G|-----5------------7~------5-7p5-----------
D|-5/7--------------------7-------7p5-7\----
A|----------------------7-------------------
E|------------------------------------------

   Am7          D7(9)
E|------------------------------------------
B|---5-8p5-8-8p7-8/10~---10-----------------
G|-5------------------------11--------------
D|-----------------------------12\----------
A|------------------------------------------
E|------------------------------------------

   Am7            D7(9)
E|------------------------------------------
B|-------5-8-5-8-7--------------------------
G|-----5------------7~------5-7p5-----------
D|-5/7--------------------7-------7-5-7\----
A|----------------------7-------------------
E|------------------------------------------

   Am7          D7(9)
E|-------5p0--------------------------------
B|---5-8-----8-8p7--8/10~/------------------
G|-5----------------------------------------
D|------------------------------------------
A|------------------------------------------
E|------------------------------------------

Tema c:

   Am7                D7(9)
E|-8-8-------8------8-----------------------
B|-----10-10---10-----10------10~-----------
G|-----------------------9/11-------5-7p5---
D|---------------------------------7------7-
A|--------------------------------7---------
E|------------------------------------------

   Am7               D7(9)
E|-8-8-------8------------------------------
B|-----10-10---10-----10~-------------------
G|----------------9/11----------------------
D|-------------------------12-12\10~--------
A|------------------------------------------
E|------------------------------------------

   Am7                D7(9)
E|-8-8-------8------8-----------------------
B|-----10-10---10-----10------10~-----------
G|-----------------------9/11-------5-7p5---
D|---------------------------------7------7-
A|--------------------------------7---------
E|------------------------------------------

   Am7                 D7(9)
E|-8-8-------8------------------------------
B|-----10-10---10-----10~-------------------
G|----------------9/11----------------------
D|------------------------------------------
A|------------------------------------------
E|------------------------------------------

   Am7                    D7(9)
E|-8p5---8p5--8p5---8p5--8p5---5h8p5-8p5----
B|------------------------------------------
G|------------------------------------------
D|------------------------------------------
A|------------------------------------------
E|------------------------------------------

   Am7           D7(9)
E|-8p5--------------------------------------
B|------------------------------------------
G|-----7/9\7~---5p7h5-----------------------
D|------------------------------------------
A|------------------------------------------
E|------------------------------------------

Tema d:

   Am7              D7(9)
E|------------------------------------------
B|---------5---5-7--------------------------
G|-5-5-5-5---5------------------------------
D|-------------------4-5-6-7----------------
A|------------------------------------------
E|------------------------------------------

   Am7                 D7(9)
E|------------------------------------------
B|-------------5---5-7----------------------
G|-5-5-5-5-5-5---5--------------------------  (2x)
D|-----------------------4-5-6-7------------
A|------------------------------------------
E|------------------------------------------

Riff 2 - 3x:

   Am7              D7(9)
E|---------------------5--------------------
B|-----5-----5-----5---5--------------------
G|---5-----5-----5-----5--------------------
D|-7-----6-----5-----4----------------------
A|------------------------------------------
E|------------------------------------------
Composição de Tito Puente
Colaboração e revisão:
  • Philippe Lobo
67.843 exibições
    • ½ Tom
    • A
    • Bb
    • B
    • C
    • Db
    • D
    • Eb
    • E
    • F
    • F#
    • G
    • Ab
  • Adicionar à lista

    0 comentários

    Ver todos os comentários
    00:00 / 00:00
    Outros vídeos desta música
    Repetir Qualidade Automático
    Outros vídeos desta música
    00:00 / 00:00
    Automático
    Capítulos
    • Início
    • Tocando a música
    • Configuração dos Efeitos
    • Configuração do Amplificador
    • Acordes da música
    • Ritmo da Base
    • Ensinando Tema A
    • Ensinando Riff de Passagem
    • Ensinando Tema B
    • Ensinando Tema C
    • Ensinando Tema D
    • Ensinando Riff 2
    • Encerramento

    Cifra Club Pro

    Aproveite o Cifra Club com benefícios exclusivos e sem anúncios
    Cifra Club Pro
    Aproveite o Cifra Club com benefícios exclusivos e sem anúncios
    OK