Cifra Club

Put Your Lights On

Santana

Cifra: Versão 4 (violão e guitarra)
tom: Am
Intro:
guitarra acustica
Repetir 2x
          Am           A                 C
E|-------------------------------------------------------|
B|---1-1---0-1-1-1-1----1-1-1---3-1-0-0------------------|
G|---2-2---2-2-2-2-0----0-0-0---0-0-0-0------------------|
D|---2-2---2-2-2-2-2----2-2-2---2-2-2-2------------------|
A|-------------------------------------------------------|
E|-------------------------------------------------------|

           G                        F                    E
E|-----------------3-0--0-0-0--0-0-0-0-0--------------------|
B|--3----3-3-3-3-3--3-3-3--1-1-1-1-1------------------------|
G|--0----0-0-0-0-0--0-0-0--2-2-2-2-2------------------------|
D|--0----0-0-0-0-0--0-0-0--3-3-3-3-3--2----2-2-2------------|
A|--2----2-2-2-2-2--2-2-2--3-3-3-3-3--2----2-2-2------------|
E|--3----3-3-3-3-3--3-3-3-----------------| 0----0-0-0-------

Versos/Coros:
guitarra acustica
Hey now .................... all ya sinner put your lights on
           Am              A                      C
E|-------------------------------------------------------------|
B|--1----1-1-1---0-0-0--1----1-1-1---3-1-0-1----|
G|--2----2-2-2---2-2-2--0----0-0-0---0-0-0-0----|
D|--2----2-2-2---2-2-2--2----2-2-2---2-2-2-2----|
A|----------------------3----3-3-3---3-3-3-3----|
E|-------------------------------------------------------------|

E|-------------3-0--0-0-0--0-0-0-0-0--------------------|
B|--3----3-3-3-3-3--3-3-3--1-1-1-1-1--------------------|
G|--0----0-0-0-0-0--0-0-0--2-2-2-2-2--------------------|
D|--0----0-0-0-0-0--0-0-0--3-3-3-3-3--2----2-2-2----|
A|--2----2-2-2-2-2--2-2-2--3-3-3-3-3--2----2-2-2----|
E|--3----3-3-3-3-3--3-3-3------------| 0----0-0-0----

: (esto se toca al mismo tiempo que el solo)
guitarra elctrica
Heavy Distortion
   G                      A                      F
 E
E|-------------------------------------------------------------------------------------|
B|-------------------------------------------------------------------------------------|
G|-------------------------------------------------------------------------------------|
D|-5-5--x-x--x----7-7--x-x--x----3-3--x-x--x-x---2-2--x-2--x--x-x----|
A|-5-5--x-x--x----7-7--x-x--x----3-3--x-x--x-x---2-2--x-2--x--x-x----|
E|-3-3--x-x--x----5-5--x-x--x----1-1--x-x--x-x---0-0--x-0--x--x-x----|

Verso/Coros:
Guitarra acustica
Hey now .................... all ya sinner put your lights on..........
            Am           A                    C
E|-----------------------------------------|
B|---1-1---0-1-1-1-1----1-1-1---3-1-0-1----|
G|---2-2---2-2-2-2-0----0-0-0---0-0-0-0----|
D|---2-2---2-2-2-2-2----2-2-2---2-2-2-2----|
A|-----------------3----3-3-3---3-3-3-3----|
E|-----------------------------------------|

            G                       F                  E
E|-------------3-0--0-0-0--0-0-0-0-0---------------|
B|--3----3-3-3-3-3--3-3-3--1-1-1-1-1---------------|
G|--0----0-0-0-0-0--0-0-0--2-2-2-2-2---------------|
D|--0----0-0-0-0-0--0-0-0--3-3-3-3-3--2----2-2-2----|
A|--2----2-2-2-2-2--2-2-2--3-3-3-3-3--2----2-2-2----|
E|--3----3-3-3-3-3--3-3-3-------------0----0-0-0----|

(letra)

Hey now all ya sinners put your lights on
Ya better put your lights on
Hey now all ya lover put your lights on
Ya better put your lights on
Hey now all ya killers put your lights on
Ya better put your lights on
Hey now all ya children keep your lights on
Better keep your lights on
Cause theres a moster livin under my bed
Whispering in my ear
Theres an angel
With her hand on my head
She say I got nothing to fear
Theres a darkness living deep in my soul
Still got a purpose to serve
So let your light shine deep into my hole
God don't let me lose my nerve
Don't let me lose my nerve.
Hey now Hey now
Woh oh Hey Now
Hey now Hey now
Hey now all ya sinners put your lights on
Ya better put your lights on
Hey now all ya children keep your lights on
Better keep your lights on
Cause theres a moster livin under my bed
Whispering in my ear
There an angel
With her hand on my head
She say I got nothing to fear
She said
A  A  ha hey A  A 
Ya gotta shine like a star
A  A  ha hey A  A 
Ya gotta shine like a star
And then you fade away.
Composição de Erik Schrody
2 exibições
    • ½ Tom
    • Am
    • Bbm
    • Bm
    • Cm
    • C#m
    • Dm
    • Ebm
    • Em
    • Fm
    • F#m
    • Gm
    • G#m
  • Adicionar à lista

    0 comentários

    Ver todos os comentários

    Conseguiu tocar?

    0 Tocaram 0 Ainda não

    Grave um vídeo tocando Put Your Lights On e nos envie!

    00:00 / 00:00
    Outros vídeos desta música
    Repetir Qualidade Automático
    Outros vídeos desta música
    00:00 / 00:00
    Automático

    Cifra Club Pro

    Aproveite o Cifra Club com benefícios exclusivos e sem anúncios
    Cifra Club Pro
    Aproveite o Cifra Club com benefícios exclusivos e sem anúncios
    OK