Enviar cifraEntrar

Smooth

Santana

Cifra: Principal
exibições 169.068
Tom: C
Introdução: Am  F  E7

(Riff 1)


E|-----------------------------------------------------|
B|------------------------12-12b13r12-------12-13------|
G|-------12----14~--13-14----------------14-------14-14|
D|-12h14----14-----------------------------------------|
A|-----------------------------------------------------|
E|-----------------------------------------------------|


E|-----------------------------------------------------|
B|---------------8-------------------------------------|
G|-7b9r7b9r7b9~----9\7-5~---7p5\4----------------------|
D|--------------------------------7-6-7-7/9-7~---------|
A|-----------------------------------------------------|
E|-----------------------------------------------------|



Primeira Parte:

            Am     F  E7
Man it's a hot one
                  
Like seven inches 
          Am        F  E7
From the midday sun
                        
I hear you whisper and
     Dm        Dm/C      Bm7(b5)  E7
The words melt      everyone
              Am     F  E7
But you stay so cool

         Am  F  E7
My muñequita
                        Am  F  E7
My spanish harlem Mona Lisa
                     Dm        Dm/C
You're my reason for    reason
Bm7(b5)     E7          Am       F  E7
        The    step in my groove

(Riff 2)


E|-----------------------------------------------------|
B|----------------------13-12--15-13-12-------12-------|
G|-------------------16-----------------14-13----13-14\|
D|-------------12/14-----------------------------------|
A|-------12-15-----------------------------------------|
E|-12-15-----------------------------------------------|


(Riff 3)


E|-----------------------------------------------------|
B|-15b17-15b17-13h15~/17~------------------------------|
G|-----------------------------------------------------|
D|-----------------------------------------------------|
A|-----------------------------------------------------|
E|-----------------------------------------------------|


(Riff 4)


E|-------12-15p12----12--------------------------------|
B|-15b17----------15----15b17r15p13-15-b17r15b17~~-----|
G|-----------------------------------------------------|
D|-----------------------------------------------------|
A|-----------------------------------------------------|
E|-----------------------------------------------------|



Pré-Refrão:

            Am
And if you say 
          F       E7
This life   ain't    good enough
         Am           F
I would give my world   
 E7
To lift you up
          Am
I could change 
        F
My life   
 E7                  Dm  Dm/C  Bm7(b5)
To better suit your mood
E7               F#7(4)   E7(9+)
   Cause you're so smooth 

(Riff 5)


E|-----------------------------------------------------|
B|--------------------------12--13p12------------------|
G|----------------------14------------14~--------------|
D|-12-12-12-12--14--15---------------------------------|
A|-----------------------------------------------------|
E|-----------------------------------------------------|


(Riff 6)


E|-------12--------12--15p12----12---------------------|
B|-15b17-----15b17-----------15----15b17r15p13~--------|
G|-----------------------------------------------------|
D|-----------------------------------------------------|
A|-----------------------------------------------------|
E|-----------------------------------------------------|


E|-----------------------------------------------------|
B|-15p13~-15p13~-15p13---------------------------------|
G|---------------------14~-----------------------------|
D|-----------------------------------------------------|
A|-----------------------------------------------------|
E|-----------------------------------------------------|



Refrão:

          Am             F   E7
And it's just like the ocean 
              
Under the moon
                 Am             F
Well that's the same as the emotion 
       E7
That I    get from you
     Am                F  E7
You got the kind of lovin 

That can be so smooth
 Dm                          E7
Give me your heart, make it real
                        
Or else forget about it

(Riff 7)


E|-----------------------------------------------------|
B|----------------12-12b13r12-----12-13----------------|
G|-12h14~---13-14--------------14-------14-14----------|
D|-----------------------------------------------------|
A|-----------------------------------------------------|
E|-----------------------------------------------------|


E|-----------------------------------------------------|
B|-15b17~r15p13--15p13---------------------------------|
G|---------------------14~-----------------------------|
D|-----------------------------------------------------|
A|-----------------------------------------------------|
E|-----------------------------------------------------|



Segunda Parte:

              Am        F  E7
I'll tell you one thing

If you would leave 
                Am         F  E7
It would be a crying shame
                           Dm
In every breath and every word 
Dm/C    Bm7(b5)  E7
I hear your name   
         Am    F  E7
Calling me out

              Am    F  E7
Out from the barrio
                   
You hear my rhythm 
           Am   F  E7
From your radio
                             Dm
You feel the turning of the world 
 Dm/C   Bm7(b5)  E7
So soft and slow
         Am       F  E7
Turning you round       and round

(Riff 8)


E|-----------------------------------------------------|
B|-----------------------------------------------------|
G|-7/9-7~----------------------------------------------|
D|-----------------------------------------------------|
A|-----------------------------------------------------|
E|-----------------------------------------------------|


(Riff 9)


E|-----------------------------------------------------|
B|---------------------12-13-12-15-13-12-------12------|
G|---------------13-14-------------------14-13----13-14|
D|12h14-12h14-15---------------------------------------|
A|-----------------------------------------------------|
E|-----------------------------------------------------|


(Riff 10)


E|-----------------------------------------------------|
B|-------------------10-13p12--------------------------|
G|----------------10-----------------------------------|
D|----------10-12--------------------------------------|
A|-------12--------------------------------------------|
E|-10-12-----------------------------------------------|


(Riff 11)


E|-------12-15p12----12--------------------------------|
B|-15b17----------15----15b17r15p13-15-b17r15b17~~-----|
G|-----------------------------------------------------|
D|-----------------------------------------------------|
A|-----------------------------------------------------|
E|-----------------------------------------------------|



Pré-Refrão:

            Am
And if you say 
          F       E7
This life   ain't    good enough
         Am           F
I would give my world   
 E7
To lift you up
          Am
I could change 
        F
My life   
 E7                  Dm  Dm/C  Bm7(b5)
To better suit your mood
E7               F#7(4)   E7(9+)
   Cause you're so smooth 

(Riff 12)


E|-----------------------------------------------------|
B|--------------12-13--15-13-15-13h15------------------|
G|-----------14----------------------------------------|
D|-12-14-15--------------------------------------------|
A|-----------------------------------------------------|
E|-----------------------------------------------------|


(Riff 13)


E|-------12--------12--15p12----12---------------------|
B|-15b17-----15b17-----------15----15b17r15p13~--------|
G|-----------------------------------------------------|
D|-----------------------------------------------------|
A|-----------------------------------------------------|
E|-----------------------------------------------------|


E|-----------------------------------------------------|
B|-15p13~-15p13~-15p13-------------------~-------------|
G|---------------------14~-----------------------------|
D|-----------------------------------------------------|
A|-----------------------------------------------------|
E|-----------------------------------------------------|



Refrão:

          Am             F   E7
And it's just like the ocean 
              
Under the moon
                 Am             F
Well that's the same as the emotion 
       E7
That I    get from you
     Am                F  E7
You got the kind of lovin 

That can be so smooth
 Dm                          E7
Give me your heart, make it real
                        
Or else forget about it

(Riff 14)


E|-----------------------------------------------------|
B|-12~------12-13~---15\-------------------------------|
G|-------14--------------------------------------------|
D|-----------------------------------------------------|
A|-----------------------------------------------------|
E|-----------------------------------------------------|


E|-12h13p12-------12-----------------------------------|
B|----------15-13-------15-13-15-13-15p13~\------------|
G|-----------------------------------------------------|
D|-----------------------------------------------------|
A|-----------------------------------------------------|
E|-----------------------------------------------------|



Solo:


E|-----------------------------------------------------|
B|-------------------12b13r12--------------------------|
G|-12h14~---13~---13----------14~----------------------|
D|-----------------------------------------------------|
A|-----------------------------------------------------|
E|-----------------------------------------------------|


E|-----------------------------------------------------|
B|-12----------------12-13-12--------------------------|
G|----14-13-------13----------14~----------------------|
D|-------------14--------------------------------------|
A|-----------------------------------------------------|
E|-----------------------------------------------------|


E|-----------------------------------------------------|
B|-12-------12-13-12----12h13p12-----------------------|
G|----13-------------13----------14-14~----------------|
D|-----------------------------------------------------|
A|-----------------------------------------------------|
E|-----------------------------------------------------|


E|-----------------------------------------------------|
B|-----------------------------------------------------|
G|-----------------------------------------------------|
D|-12h14-12h14-12/14~----------------------------------|
A|-----------------------------------------------------|
E|-----------------------------------------------------|


E|-----------------------------------------------------|
B|-20b22--20b22--20b22r20-17---------------------------|
G|---------------------------19--b21-b21~~-------------|
D|-----------------------------------------------------|
A|-----------------------------------------------------|
E|-----------------------------------------------------|


E|-19b20r19-17-----------------------------------------|
B|-------------20b22~-17h20p17----17-------17----------|
G|-----------------------------19----17-19----19~------|
D|-----------------------------------------------------|
A|-----------------------------------------------------|
E|-----------------------------------------------------|


E|-----17-19-20-19-20-19-20-19-20-19-20-19-20-19-20-19-|
B|-/17-------------------------------------------------|
G|-----------------------------------------------------|
D|-----------------------------------------------------|
A|-----------------------------------------------------|
E|-----------------------------------------------------|


E|-20-20b22-b22...--b22r20p17----17--------------------|
B|----------------------------20----20b22--------------|
G|-----------------------------------------------------|
D|-----------------------------------------------------|
A|-----------------------------------------------------|
E|-----------------------------------------------------|


E|-17-------17-------17-------17-----------------------|
B|----20b22----20b22----20b22----20b22r20p17----17-----|
G|-------------------------------------------19--------|
D|-----------------------------------------------------|
A|-----------------------------------------------------|
E|-----------------------------------------------------|


E|-----------17----------------------------------------|
B|--------17----20p17----------------------------------|
G|-19b21--------------19b21r19p17----17h19p17~---------|
D|--------------------------------19-------------------|
A|-----------------------------------------------------|
E|-----------------------------------------------------|


E|12...-13...-14...-15...-16...-17...-18...-19...-20...|
B|-----------------------------------------------------|
G|-9...-10...-11...-12...-13...-14...-15...-16...-17...|
D|-----------------------------------------------------|
A|-----------------------------------------------------|
E|-----------------------------------------------------|



Refrão:

          Am             F   E7
And it's just like the ocean 
              
Under the moon
                 Am             F
Well that's the same as the emotion 
       E7
That I    get from you
     Am                F  E7
You got the kind of lovin 

That can be so smooth
 Dm                          E7
Give me your heart, make it real
                        
Or else forget about it
  • 1
  • 2
  • 3
  • 4
  • 5
  • 6
  • 7
  • 8
  • 9
  • 10
  • 11
  • 12
    Acordes para:
      Composição: Itaal Shur / Rob ThomasColaboração e revisão:
      • v.inny

      0 comentários

        mostrar mais comentários

        Conseguiu tocar?

        3tocaram1ainda não

        Grave um vídeo tocando Smooth e mande pra gente!

        00:00 / 00:00
        outros vídeos desta música
        repetirqualidadeautomática
        • automática
        Outro vídeos desta música
          Capítulos
          • Tocando a música
          • Dicas Iniciais / Equipamentos
          • Tocando a Introdução
          • Introdução - Riff 1
          • Tocando a Primeira Parte
          • Primeira Parte - Riff 2
          • Primeira Parte - Riff 3
          • Primeira Parte - Riff 4
          • Tocando o Pré-Refrão
          • Pré-Refrão - Riff 5
          • Pré-Refrão - Riff 6
          • Tocando o Refrão
          • Primeiro Refrão - Riff 7
          • Tocando a Segunda Parte
          • Segunda Parte - Riff 8
          • Segunda Parte - Riff 9
          • Segunda Parte - Riff 10
          • Segunda Parte - Riff 11
          • Tocando Pré-Refrão e Refrão
          • Pré-Refrão - Riff 12
          • Pré-Refrão - Riff 13
          • Segundo Refrão - Riff 14
          • Tocando o Solo
          • Solo - Parte 1 de 9
          • Solo - Parte 2 de 9
          • Solo - Parte 3 de 9
          • Solo - Parte 4 de 9
          • Solo - Parte 5 de 9
          • Solo - Parte 6 de 9
          • Solo - Parte 7 de 9
          • Solo - Parte 8 de 9
          • Solo - Parte 9 de 9
          • Dicas 2
          • Tocando Refrão - Final
          • Escala de Lá Menor Natural
          • Escala de Lá Menor Harmônica
          • Digitação 1
          • Digitação 2
          • Dicas 3
          • Criando Solo
          • Encerramento
          • Ficha Técnica e Erros de Gravação
          00:00 / 00:00
          automática
          • automática
          Acordes para:violão e guitarra
          dificuldadeexibiçõescontribuições
          1 versão de Tab de baixoexibiçõescontribuições
          1 versão de Tab de bateriaexibiçõescontribuições
          2 versões de Guitar Proformatodownloadscontribuição
          1 versão de Partiturasformatodownloadscontribuição
          fecharplay/pause subir/descer velocidade
            acordes
            fechar
            OK
            Feedback