Cifra Club

Tempestade

Santorine

Cifra: Principal (violão e guitarra)
tom: C
INTRO:C Am F G

SOLO:. e|------------------------------------------------------------|
       B|-----3-3h-5-5-----------------------------------------------|
       G|---5--------------------------------------------------------| 2x
       D|------------------------------------------------------------|
       A|------------------------------------------------------------|
       E|------------------------------------------------------------|

       e|------------------------------------------------------------|
       B|--5-6-6/8-8-------------------------------------------------|
       G|------------------------------------------------------------|
       D|------------------------------------------------------------|
       A|------------------------------------------------------------|
       E|------------------------------------------------------------|

       e|------------------------------------------------------------|
       B|--5-6-5-3-1-3-1-0-1-3---------------------------------------|
       G|------------------------------------------------------------|
       D|------------------------------------------------------------|
       A|------------------------------------------------------------|
       E|------------------------------------------------------------|

       e|------------------------------------------------------------|
       B|------------------------------------------------------------|
       G|---4/5/4-0--------------------------------------------------|
       D|---5/6/5-0--------------------------------------------------|
       A|------------------------------------------------------------|
       E|------------------------------------------------------------|

C
Diga que você não já me ama
                    Am
Que eu paro com esse drama

Se esse amor não for mais meu
F
Diga que de mim você nem lembra
               G
Que eu mudo de dilema

E já não sou problema seu
C
Juro nunca mais eu ti procuro
                 Am
Porque vou estar seguro

Que chegou o nosso fim
F
Por favor, me fale a verdade.
               G
To morrendo de saudade

Vem cuidar de mim

Am                       C
Vê se lembra de tudo que agente viveu
Am                         G
Diz pra mim que assim como eu
           C                     Am
Você sente saudade e tem medo do fim
            F                          G
Pra falar a verdade nunca amou ninguém assim
         C                       Am
E que a tempestade está perto do fim
           F                        G
Eu sou sua metade e você nasceu pra mim

INTRO (1x)

C
Diz que sente saudade...
Am          F                           G
Pra falar a verdade nunca amou ninguém assim
         C                       Am
E que a tempestade está perto do fim
           F                        G
Eu sou sua metade e você nasceu pra mim
                  C
E você nasceu pra mim
Compositor não encontrado.
Colaboração e revisão:
  • Matheus Rodrigues
  • Karine Aline
4.820 exibições
    • ½ Tom
    • A
    • Bb
    • B
    • C
    • Db
    • D
    • Eb
    • E
    • F
    • F#
    • G
    • Ab
  • Adicionar à lista

    0 comentários

    Ver todos os comentários
    00:00 / 00:00
    Outros vídeos desta música
    Repetir Qualidade Automático
    Outros vídeos desta música
    00:00 / 00:00
    Automático

    Cifra Club Pro

    Aproveite o Cifra Club com benefícios exclusivos e sem anúncios
    Cifra Club Pro
    Aproveite o Cifra Club com benefícios exclusivos e sem anúncios
    OK