Cifra Club

Tormento

Santorine

Cifra: Principal (violão e guitarra)
tom: B (forma dos acordes no tom de G) Capotraste na 4ª casa
Violão solo

E|--------------3~--|
B|--------------3~--|
G|-----0--------0~--|
D|----0-0-------0~--|
A|-0h2----2b3p0-2~--|
E|--------------3~--|

Riff 1

E|-----2-|
B|----3--|
G|-3p2---|

Riff 2

E|--------------------------|
B|-----------3--------------|
G|----1-0-1----0---2/4-2/4--|
D|-2-0----------0-2---------|


G                          Em7/B
Me falta o ar, me falta o chão
                     C9
Quando estou longe solidão
                     D/F#
Insiste de mim, te afastar.         Riff 1
Am                       G/B
Por mais que eu tente esquecer
                   G                      D/F#
Já não existe um porquê e esse carinho aumentar          Riff 2


G                         Em7/B
Me falta amor, me falta tempo
                      C9
Pra dizer que esse tormento
                  D/F#
Ainda pode me esquecer.
Am                  C9
Sem teu carinho aprendi
                     G
Que a forma de te esquecer
                 D/F#             G
Me cuidando sem você, sem você aqui...


                    G/F#                        Em7/B
O seu amor me faz sonhar, será que tudo é o fim?
                        C9                     G
Me sinto tão distante, sem ter você perto de mim.
                        G/F#                               Em7/B C9 D/F# G
A solidão me assusta e vem de um jeito que não posso segurar.

G                      Em7/B                 C9
Eu vejo fotos, sinto seu perfume tento entender
                       D/F#                       G
Porque será que dessa vez o amor não vem pra valer?
                            Em7/B                  C9
Mas não desisto sei que um dia ainda vou te encontrar
D/F#                             G
Ai quem sabe a gente possa se amar...

G Em7/B C9 D/F#


E|-3---3-3---3---3---3-3---3---3---3-3---3---2---2-2---2---|
B|-3--3-3---3-3--3--3-3---3-3--3--3-3---3-3--3--3-3---3-3--|
G|-0-0-----0-----0-0-----0-----0-0-----0-----2-2-----2-----|
D|-0-------------2-------------2-------------0-------------|
A|-2-------------2-------------3---------------------------|
E|-3-------------------------------------------------------|


Am C9 G D/F#


E|-0----0-0--0--3---3-3---3---3---3-3---3---5---5-----5----|
B|-1---1-1--1-1-3--3-3---3-3--3--3-3---3-3--7--7-7---7-7---|
G|-2--2----2----0-0-----0-----4-4-----4-----7-7-----7------|
D|-2------------2-------------5-------------7--------------|
A|-0------------3-------------5----------------------------|
E|----------------------------3----------------------------|


Riff 3

E|-3p0----------0--|
B|-----3p0------1--|
G|---------2p0--2--|
D|--------------2--|
A|--------------0--|

Riff 4 (Tocado junto com as Frases)

E|----------------|
B|----------------|
G|--0-2/4-2-0-----|
D|-2----------2~--|

Riff 5 (Passagem)
E|---------------|
B|-----2-2-0-----|
G|-2/4-4-2-0-0---|
D|-----------2p0-|




G                         Em7/B
Me falta amor, me falta tempo
                      C9
Pra dizer que esse tormento
                  D/F#
Ainda pode me esquecer.   Riff 3
Am                  C9
Sem teu carinho aprendi
                     G
Que a forma de te esquecer
                 D/F#             G
Me cuidando sem você, sem você aqui...


                    G/F#                        Em7/B
O seu amor me faz sonhar, será que tudo é o fim?      Riff 4
                        C9                     G
Me sinto tão distante, sem ter você perto de mim.
                        G/F#                               Em7/B C9 D/F# G
A solidão me assusta e vem de um jeito que não posso segurar.      Riff 5

G                      Em7/B                  C9
Eu vejo fotos, sinto seu perfume tento entender  Riff 6
                       D/F#                       G
Porque será que dessa vez o amor não vem pra valer?
                            Em7/B                  C9  Em7/B D/F# G
Mas não desisto sei que um dia ainda vou te encontrar     Riff 7

Riff 6

E|-------------|
B|-------------|
G|-2/4-2-0-----|
D|---------2~--|

Riff 7

E|------------|
B|-1-0--0-1-0-|
G|-----0------|
D|------------|

G                   G/F#                        Em7/B
O seu amor me faz sonhar, será que tudo é o fim?
                        C9                     G
Me sinto tão distante, sem ter você perto de mim.
                        G/F#                               Em7/B C9 D/F# G
A solidão me assusta e vem de um jeito que não posso segurar

G                      Em7/B                 C9
Eu vejo fotos, sinto seu perfume tento entender
                       D/F#                       G
Porque será que dessa vez o amor não vem pra valer?
                            Em7/B                  C9
Mas não desisto sei que um dia ainda vou te encontrar
D/F#                          G     Em7/B
Ai quem sabe a gente possa se amar..
    C9
Se Amar
(D/F#)                         G
Ai quem sabe a gente possa se amar...


(D/F#)

E|-2------|
B|-3-3----|
G|-2---2--|
D|-0----0-|
A|-X------|
E|-2------|
Composição de SANTORINE
Colaboração e revisão:
  • alexander augusto
  • Ytalo Marques
14.401 exibições
    • ½ Tom
    • A
    • Bb
    • B
    • C
    • Db
    • D
    • Eb
    • E
    • F
    • F#
    • G
    • Ab
  • Adicionar à lista

    0 comentários

    Ver todos os comentários
    00:00 / 00:00
    Outros vídeos desta música
    Repetir Qualidade Automático
    Outros vídeos desta música
    00:00 / 00:00
    Automático

    Cifra Club Pro

    Aproveite o Cifra Club com benefícios exclusivos e sem anúncios
    Cifra Club Pro
    Aproveite o Cifra Club com benefícios exclusivos e sem anúncios
    OK