Cifra Club

Si amaciera

Saratoga

Cifra: Principal (violão e guitarra)
tom: F#m
Intros

Intro 1
=======

Con guitarra acustica:

E|-------5----4----4--5--4--2--0--2----0--2--5--0----0-----2--0--|
B|--2---------------------------------------------------2--------|
G|---------------------------------------------------------------|
D|---------------------------------------------------------------|
A|---------------------------------------------------------------|
E|---------------------------------------------------------------|

E|-----5--5--2-----5---2-----5--5--------------7--7--4-----7--4----7--7--|
B|--3-----------3---------3--------3--5--3--5-----------5-------5--------|
G|-----------------------------------------------------------------------|
D|-----------------------------------------------------------------------|
A|-----------------------------------------------------------------------|
E|-----------------------------------------------------------------------|

Se podrian hacer arreglos de organo con sonido de orquesta

Notas de acorde:
C# -F# -A , B -E -G#  , A -D -F# , A -C# -E ,
D -F# -A , E -G#  -B 


Intro 2
=======

Con dos guitarras acusticas tocando a la vez:

Guitarra 1:
E|-------5----5----7----9--9--9--------10--7--9--9--9------------|
B|--2------------------------------7-----------------------------|
G|---------------------------------------------------------------|
D|---------------------------------------------------------------|
A|---------------------------------------------------------------|
E|---------------------------------------------------------------|

Guitarra2:
E|-------5----4----4--5--4--2--0--2----0--2--5--0----0-----2--0--|
B|--2---------------------------------------------------2--------|
G|---------------------------------------------------------------|
D|---------------------------------------------------------------|
A|---------------------------------------------------------------|
E|---------------------------------------------------------------|

Guitarra 1:
E|--14--14--12--10--9--7---5--4--2--2--4--2--0--0----7--5--4--2--0-------|
B|-----------------------6-----------------------------------------------|
G|-----------------------------------------------------------------------|
D|-----------------------------------------------------------------------|
A|-----------------------------------------------------------------------|
E|-----------------------------------------------------------------------|

Guitarra 2:
E|-----5--5--2-----5---2-----5--5--------------7--7--4-----7--4----7--7--|
B|--3-----------3---------3--------3--5--3--5-----------5-------5--------|
G|-----------------------------------------------------------------------|
D|-----------------------------------------------------------------------|
A|-----------------------------------------------------------------------|
E|-----------------------------------------------------------------------|


Los arreglos de orquesta aqui podrian ser iguales
que en el anterior


Primer trozo
============

La guitarra acustica toca esto dos veces mientras canta:

E|--------0----------3--0-1-0--1-3-1-0------------------------|
B|--1--1-----3-------------------------3--1----------------0--|
G|--------------0--0------------------------------------1--1--|
D|---------------------------------------------------2-----2--|
A|------------------------------------------------2--------2--|
E|---------------------------------------------0-----------0--|

La letra y los acordes son:

Am                         G  
Ahora que mi voz se ha convertido
             Dm 
En apenas un suspiro
     E 
Debo descansar

Am                        G  
Hoy que en la mitad de mi camino
                   Dm 
La evidencia me ha vencido
        E 
Y me ha echo llorar


Segundo trozo
=============

La guitarra acustica toca esto dos veces mientras canta:

E|--------0------------3-----------------1------------------------0--|
B|--1--------1--3----3----3-----1-----------1------------------0-----|
G|-----0-----------0---------0-----2-----------2------------1--------|
D|------------------------------------3-----------3------2-----------|
A|----------------------------------------------------2--------------|
E|-------------------------------------------------------------------|

La letra y los acordes son:

C         G  
Se que el tiempo curara
Fam/Rem  E 
Aunque nada siga igual
C     G  
No me quiero resignar
Fam/Rem  E 
No olvidare


Primer trozo
============

Yo que hasta el momento ignoraba
En el punto en que se hallaba
Esa enfermedad
Siento que la vida es como un hilo
Que se corta de improviso
Y sin avisar


Segundo trozo
=============

Y en la oscura habitacion
Necesito oir tu voz
Ahora duermes junto a mi

Puente de guitarra acustica:

E|-------------------------------------------------------------------|
B|-------------------------------------------------------------------|
G|-------------------------------------------------------------------|
D|--------2-----------2-----------2-----------2----------------------|
A|-----2-----2-----2-----2-----2-----2-----2-----2-------------------|
E|--0-----------0-----------0-----------0----------------------------|

Esperare


Estribillo
==========

La guitarra acustica toca esto dos veces mientras canta:

E|----2-----2--------0--------0----2--------2-4-2-------|
B|----2--2-----2--------0-------------3-----------------|
G|----2-----------2--------1-------------2--------------|
D|----3-------------------------------------------------|
A|----3-------------------------------------------------|
E|----2-------------------------------------------------|

E|----------------2-------------------2-----------2-----|
B|-------------2-----2-------------3-----3-----3-----3--|
G|----------1-----------1-------2-----------2-----------|
D|-------3-----------------3----------------------------|
A|----4-------------------------------------------------|
E|------------------------------------------------------|

E|------------------------------------------------------|
B|---------2-----------2-----------2-----------2--------|
G|------------------------------------------------------|
D|------3-----3-----3-----3-----3-----3-----3-----3-----|
A|---4-----------4-----------4-----------4--------------|
E|------------------------------------------------------|


La letra y los acordes son:

F#m       E       D 
Si amaneciera sin ti
   C#                 Bm 
Yo no se que seria de mi
C#                                  F#m 
Hoy la muerte me ha mostrado ya sus cartas
       E          D 
Y no entiendo la jugada
C#         Bm 
Trato de salir

No quiero admitir

Puente de guitarra acustica:

E|--------3-----------3-----------3-----------3----------------------|
B|-------------------------------------------------------------------|
G|-------------------------------------------------------------------|
D|-------------------------------------------------------------------|
A|-----5-----5-----5-----5-----5-----5-----5-----5-------------------|
E|--3-----------3-----------3-----------3----------------------------|

E  soledad


Intro 2
=======

Tocan otra vez la intro 2


**Ahora entran el bajo y la bateria**



Primer trozo
============

La guitarra acustica ahora solo toca acordes:

Am                           G  
Duermo apenas cinco o seis minutos
                 Dm 
Suficientes para hundirme
      E 
En la tempestad
Am                        G  
Los demonios que hay bajo la cama
              Dm 
Esta noche no se callan
      E 
No me dejaran


Segundo trozo
=============

La guitarra acustica ahora solo toca acordes:

C    G  
El reloj marca las seis
Fam/Rem   E 
Lo mas duro es el final
C    G  
Y la luz se posara
Fam/Rem   E 
En el cristal


Primer trozo
============

La guitarra acustica ahora solo toca acordes:

Am                     G  
Huyo a veces pienso en otra cosa
             Dm 
Mi cerebro reacciona
      E 
No me deja en paz
Am                  G  
Y de nuevo vuelve a sacudirme
             Dm 
Ese frio incontenible
          E 
Que es la realidad


Segundo trozo
=============

La guitarra acustica ahora solo toca acordes:

C      G  
El primer rayo de sol
Fam/Rem   E 
Me ilumina el corazon
C      G  
Te distingo junto a mi
Fam/Rem  E 
Mi salvacion


**Ahora entra la guitarra electrica**


Estribillo
==========

Guitarra electrica:

E|-------------------------------------------------------------------|
B|-------------------------------------------------------------------|
G|--11----9----7----6----7----7--9--11----6--4--2--------------------|
D|--11----9----7----6----7----7--9--11----6--4--2--6-----------------|
A|---9----7----5----4----5----5--7---9----4--2--0--6-----------------|
E|-------------------------------------------------4-----------------|

E|-------------------------------------------------------------------|
B|-------------------------------------------------------------------|
G|--11-------11----9--------9----7--------7----6--------6----7----4--|
D|--11-------11----9--------9----7--------7----6--------6----7----4--|
A|---9--9--9--9----7--7--7--7----5--5--5--5----4--4--4--4----5----2--|
E|-------------------------------------------------------------------|


Si amaneciera sin ti
Yo no se que seria de mi
Hoy la muerte me ha mostrado ya sus cartas
Y no entiendo la jugada
Trato de salir
No quiero admitir
E  soledad


Intro 2
=======

Tocan otra vez la intro 2



Solo de guitarra
================


Solo de guitarra electrica (ahora voy y lo casco)

Lo típico: usad la cabeza y mejor si improvisais,
que Jero es muy grande para plagiarle los solos.
Si haceis el solo poseidos, mejor que mejor.


Parte 2
=======

Guitarra electrica:

E|---8----3----1----0-------------------------------------------|
B|--------------------------------------------------------------|
G|--------------------------------------------------------------|
D|-----------------------10----5----3----2----------------------|
A|-----------------------10----5----3----2----------------------|
E|------------------------8----3----1----0----------------------|

Y en la oscura habitacion
Necesito oir tu voz
Ahora duermes junto a mi
Esperare

Guitarra electrica:

E|--------------------------------------------------------------|
B|--------------------------------------------------------------|
G|--------------------------------------------------------------|
D|--10----5----3----2----10----5----3----2----------------------|
A|--10----5----3----2----10----5----3----2----------------------|
E|---8----3----1----0-----8----3----1----0----------------------|

El primer rayo de sol
Me ilumina el corazon
Te distingo junto a mi
E  salvacion


Estribillo
==========

Otra vez el estribillo con guitarra electrica:

Si amaneciera sin ti
Yo no se que seria de mi
Hoy la muerte me ha mostrado ya sus cartas
Y no entiendo la jugada
Trato de salir
No quiero admitir...

Puente de guitarra electrica:

E|--3----5----7----9---------------------------|
B|---------------------------------------------|
G|---------------------------------------------|
D|---------------------------------------------|
A|---------------------------------------------|
E|---------------------------------------------|

Si amaneciera sin ti
Yo no se que seria de mi
Hoy la muerte me ha mostrado ya sus cartas
Y no entiendo la jugada
Trato de salir
No quiero admitir
E  soledad



Intro 1 y 2
===========

Vuelven a tocar las intros enteras,
ahora como cierre y bajando el volumen




Espero que os haya gustado y que no os lieis
con mis explicaciones
Mi consejo es oir la cancion mientras sigues
la tab, asi se pilla bien todo
y por supuesto, tocarla con mucho amor ;)
00:00 / 00:00
Outros vídeos desta música
Repetir
Outros vídeos desta música
Compositor não encontrado.
3 exibições
    • ½ Tom
    • Am
    • Bbm
    • Bm
    • Cm
    • C#m
    • Dm
    • Ebm
    • Em
    • Fm
    • F#m
    • Gm
    • G#m
  • Adicionar à lista

    0 comentários

    Ver todos os comentários

    Conseguiu tocar?

    0 Tocaram 0 Ainda não

    Grave um vídeo tocando Si amaciera e nos envie!

    00:00 / 00:00

    Cifra Club Pro

    Aproveite o Cifra Club com benefícios exclusivos e sem anúncios
    Cifra Club Pro
    Aproveite o Cifra Club com benefícios exclusivos e sem anúncios
    OK