Cifra Club

Aprenda

Crusader

Saxon

Cifra: Principal (violão e guitarra)
tom: D
Riff A (Clean)
|--------------------------------------------------------------------|
|--------------------------------------------------------------------|
|--9------9------7-----7-----7------7-----7------5-----5------5------|
|----7------7------7-----7-----7------7-----7------7------7-----7----|
|------0------0------0-----0-----0------0-----0------0------0-----0--|
|--------------------------------------------------------------------|
|                                                                    |
|--------------------------------------------------------------------|
|--------------------------------------------------------------------|
|--7-----5------4-----4-----4------5-----4------2--------------------|
|----7-----7------5-----5-----5------5-----5----2--------------------|
|------0-----0------0-----0-----0------0-----0--0--------------------|
|--------------------------------------------------------------------|

 Fill Under Riff A
|--------------|
|--------------|
|--5-------2---|
|--5---5---2---|
|--3---5---0---|
|------3-------|

Riff B
|---------------------------------------|
|---------------------------------------|
|--9-9--7---7-7---------------------2---|
|--7-7--5---5-5--5---5-5--5---5-----2---|
|----------------3---3-3--2---3--5--0---|
|--------------------------------3------|

Riff C
|------------------------------------|
|------------------------------------|
|--9--9--------7------7--7----9------|Git I
|--9----9------7------7--7----9------|
|--7------7----5------5--5----7------|
|------------------------------------|
|                                    |
|------------------------------------|
|------------------------------------|
|------------------------------------|Git II
|------------------------------------|
|------------------------------------|
|--0-0-0--0-0-0--0-0-0--0-0-0--------|

Riff D.1
|----------------------------------------|
|----------------------------------------|
|------9--------5--------7---------------|Git I
|----9---9----5---5----7---7------7------|
|--7--------3--------5----------7---7----|
|-----------------------------5----------|
|                                        |
|----------------------------------------|
|----------------------------------------|
|--9--------5--------7-------------------|Git II
|--9--------5--------7--------7----------|
|--7--------3--------5--------7----------|
|-----------------------------5----------|

Riff D.2
|----------------------------------------|
|----------------------------------------|
|------9--------5--------7--------7------|Git I
|----9---9----5---5----7---7----7---7----|
|--7--------3--------5--------5----------|
|----------------------------------------|
|                                        |
|----------------------------------------|
|----------------------------------------|
|--9--------5--------7--------7----------|Git II
|--9--------5--------7--------7----------|
|--7--------3--------5--------5----------|
|----------------------------------------|

Riff E
|-------------------------------------------------------------------|
|-------------------------------------------------------------------|
|--7---5-----------3---5--------7-------7-7-------7-7-------7-7-----|
|--7---5---3---5---3---5--------7-------7-7-------7-7-------7-7-----|
|--5---3---3---5---1---3---5555-5--5555-5-5--5555-5-5--5555-5-5-----|
|----------1---3----------------------------------------------------|
Composição de Saxon
Colaboração e revisão:
  • Taino Vieira
  • Leonardo Lamesa
7.640 exibições
    • ½ Tom
    • A
    • Bb
    • B
    • C
    • Db
    • D
    • Eb
    • E
    • F
    • F#
    • G
    • Ab
  • Adicionar à lista

    0 comentários

    Ver todos os comentários

    Conseguiu tocar?

    2 Tocaram 0 Ainda não

    Grave um vídeo tocando Crusader e nos envie!

    00:00 / 00:00
    outros vídeos desta música
    repetir qualidade Automático
    Outros vídeos desta música
    00:00 / 00:00
    Automático

    Cifra Club Pro

    Aproveite o Cifra Club com benefícios exclusivos e sem anúncios
    Cifra Club Pro
    Aproveite o Cifra Club com benefícios exclusivos e sem anúncios
    OK