Cifra Club

Aprenda

Eagle Has Landed

Saxon

Cifra: Principal (violão e guitarra)
tom: G
E|------------------------------------------------------------------|
B|-----3---------2-------------0------------------------------------|
G|-2/4--------/2-----------2p0--------------------------------------|
D|------------------------------------------------------------------|
A|-----------------------------------------7\----------2p0----------|
E|-----------------------------------------------0-3p0-------3----\-|

        ~~~~~~~~~~~~~~~~~~~~~~~~~~~~~~~~~~~~~~~~~~~
E|-------------------------------------------------------------------|
B|------15-----------14----------\-----12-----------15---------------|
G|-2/16---------2/14--------------2/12--------------14b---r14-14b----|
D|-------------------------------------------------------------------|
A|-------------------------------------------------------------------|
E|-------------------------------------------------------------------|

      ~~~   ~~~~~~          ~~~~~
E|-------------------------------------|
B|-----------15------------------------|
G|-14-14b-14-14b--r12-14-12-11-----\---|
D|-------------------------------------|
A|-------------------------------------|
E|-------------------------------------|

      ~~~~~~~~~~~~~~~~~~~      ~~~~~~~~~~         
E|-------------------------------------------------------|
B|-----3---------2-------------0-----------Trem dive|-----|
G|-2/4--------/2-----------2p0---------------------------|
D|-------------------------------------------------------|
A|-------------------------------------------------------|
E|-------------------------------------------------------|

        ~~~~~~~~~~~~~~~~~~~~~~~~~~~~~~~~~~~~~~~~~~~       
E|--------------------------------------------------15p12----15p12----|
B|------15-----------14----------\-----12-----------------12-------12-|
G|-2/16---------2/14--------------2/12--------------------------------|
D|--------------------------------------------------------------------|
A|--------------------------------------------------------------------|
E|--------------------------------------------------------------------|

E|-15p12----15p12----15p12----15p12----15p12----15p12----15p12-----|
B|-------12-------12-------12-------12-------12-------12-------12--|
G|-----------------------------------------------------------------|
D|-----------------------------------------------------------------|
A|-----------------------------------------------------------------|
E|-----------------------------------------------------------------
                                       ~~~~~             ~~~~   ~~~~~
E|-15p12----15p12----15p12----15p12----15fb--15-12--------------------|
B|-------12-------12-------12-------12-------------15-12------15------|
G|-------------------------------------------------------14fb----14fb-|
D|--------------------------------------------------------------------|
A|--------------------------------------------------------------------|
E|--------------------------------------------------------------------|

E|-------|
B|-15-\--|
G|----\--|
D|-------|
A|-------|
E|-------|

    ~~~~~~~~~~~~~~~~~~~            ~~~~~~~~   ~~~~       ~~~~~~         
E|---------------0------------2-----3--------/17fb--17-15-14----|
B|-----3------/2----------2/3---2/5-----------------------------|
G|-2/4----------------------------------------------------------|
D|--------------------------------------------------------------|
A|--------------------------------------------------------------|
E|--------------------------------------------------------------|

         ~~~~~
E|-14-12--------------|
B|-------12-14b--15\--|
G|--------------------|
D|--------------------|
A|--------------------|
E|--------------------|

     ~~~~~~~~~~~~~~~~~~~      ~~~~~~~~  ~~~~~      ~~~~~         
E|--------------------------------------------------------|
B|-----3-----------15-------2----------/--14--\----12-----|
G|-2/4--------2/16----16\-2------------/14----\-/12-------|
D|--------------------------------------------------------|
A|--------------------------------------------------------|
E|--------------------------------------------------------|

E|------------------------------------------------19fb-21fb--|
B|-15----------12-15-17fb-----17fb-17fb-15-----17------------|
G|-14b-rp12-14-----------------------------16b---------------|
D|-----------------------------------------------------------|
A|-----------------------------------------------------------|
E|-----------------------------------------------------------|

     ~~~~~~~~~~~~~~~~~~~      ~~~~~~~~                    h       h         
E|--------------------------------------15p12----15p12-------12-------|
B|-----3----------5---------7---8-------------12-------12-15----12-15-|
G|-2/4--------2/6--------2/7-/9---------------------------------------|
D|--------------------------------------------------------------------|
A|--------------------------------------------------------------------|
E|--------------------------------------------------------------------|

   ~~~          ~~                                  ~~~~~~~
E|-----12------------------------------------------------------|
B|-15b----15-12----12------------------------------------------|
G|--------------14b---14-12----14-12---------------------------|
D|--------------------------14-------14-12---------------------|
A|-----------------------------------------14-13-12-12b10b-7\--|
E|-------------------------------------------------------------|

 Main Riff

  [--PM--]   [--PM--]      [--PM--]   [--PM--]               ph~~~
E|-----------------------------------------------------------------|
B|-----------------------------------------------------------------|
G|---------9----------9-\7----------9----------9-------------------|
D|---------9----------9-\7----------9----------9-------------------|
A|---------7----------7-\5----------7----------7---7--5------------|
E|-0-0-0-0----0-0-0-0-------0-0-0-0----0-0-0-0----------7-6-5-3----| Rpt 4 X

 Lead fill 2nd time

E|---------------------|
B|---------------------|
G|---9-7---------------|
D|-/-----9-8-7-9b------|
A|-/--------------10b--|
E|---------------------|

  Guitar 1 clean w chorus/flanger

E[---3-2---5--3-2-3-------3---5--2-3p2-3p2--------|
B[-------3----------3---3---3--------------3------|
G[------------------------------------------------|
D[------------------------------------------------|
A[------------------------------------------------|
E[------------------------------------------------|
 [Guitar 2
E[------------------------------------------------|
B[------------------------------------------------|
G[------------------------------------------------|
D[-2-------------------(2)------------------------|
A[-2-------------------(2)------------------------|
E[-0-------------------(0)------------------------|
 [Guitar 3 clean                           ~~~~~~
E[------------------------------------------------|
B[-------------------------------7-8p7-8p7--------|
G[-------------------------------7-7-7-7-7-7------|
D[-----------------------------------------7------|
A[------------------------------------------------|
E[------------------------------------------------|

E|-3-2---5--3-2-3------3-----2-3----------|
B|-----3----------3-0----3-0-----3--------|
G|---------------------------------2------|
D|-------------------------------------|
A|----------------------------------------|
E|----------------------------------------|

  Guitar 1
E[-3-2---5--3-2-3------0-----2-3-2-5-3-2-3-----|
B[-----3----------3-0----3-0-------------------|
G[---------------------------------------------|
D[---------------------------------------------|
A[---------------------------------------------|
E[---------------------------------------------|
 [Guitar 2
E[-----------------------------------------7---|
B[-----------------------------------------8---|
G[---------------------------------------------|
D[---------------------------------------------|
A[---------------------------------------------|
E[---------------------------------------------|
 
  Guitar 1
E[-3-2-3-5--3-2-3------3-----2-3-5-2-3p2-3p2--|
B[----------------3-0----3-0------------------|
G[--------------------------------------------|
D[--------------------------------------------|
A[--------------------------------------------|
E[--------------------------------------------|
 [Guitar 2 clean                           
E[--------------------------------------------|
B[--------------------------------7-8p7-8p7---|
G[--------------------------------7-7-7-7-7---|
D[--------------------------------------------|
A[--------------------------------------------|
E[--------------------------------------------|

  Distorted Guitar

 Bridge

E|----------------------------------------------|
B|----------------------------------------------|
G|----5----5----5-------------------------------|
D|-12\5----5----5----------------------5--\4----|
A|-12\3----3----3----3/5\3\2-/5--\3----3--\2----|
E|-------------------------------------------3--|

 Rpt clean verse

E|-------------------------------------------|
B|-------------------------------------------|
G|-5----5----5-------------------------------|
D|-5----5----5----------------------5--\4----|
A|-3----3----3----3/5\3\2-/5--\3----3--\2----|
E|----------------------------------------3--|

  [--PM--]   [--PM--]      [--PM--]   [--PM--]               ph~~~
E|-----------------------------------------------------------------|
B|-----------------------------------------------------------------|
G|---------9----------9-\7----------9----------9-------------------|
D|---------9----------9-\7----------9----------9-------------------|
A|---------7----------7-\5----------7----------7---7--5------------|
E|-0-0-0-0----0-0-0-0-------0-0-0-0----0-0-0-0----------7-6-5-3----| Rpt 2 X

  Guitar 1
   [--PM-]             [--PM-]     [--PM-]     [--PM-]     [--PM-]
E[-------------------------------------------------------------------|
B[-------------------------------------------------------------------|
G[---------9--9-9-9--7--------7--7--------7--5--------5--5--------5--|
D[---------9--9-9-9--7--------7--7--------7--5--------5--5--------5--|
A[---------7--7-7-7--5--5-5-5-5--5--5-5-5-5--3--3-3-3-3--3--3-3-3-3--|
E[-0-0-0-0-----------------------------------------------------------|
 [Guitar 2
 [                            ~~~~~~~~~~~~~~           ~~~~~~~~~~~
E[-------------------------------------------------------------------|
B[-------------------------------------------------------------------|
G[-------------------------------------------------------------------|
D[-------------------4--4-4-4-4--4--4-4-4-4--5--5-5-5-5--5--5-5-5-5--|
A[-------------------------------------------------------------------|
E[-------------------------------------------------------------------|

  Guitar 1
E[--------------------------|
B[--------------------------|
G[-4----------(4)-----------|
D[-4----------(4)-----------|
A[-2----------(2)-----------|
E[--------------------------|
 [Guitar 2
E[--------------------------|
B[--------------------------|
G[--------------------------|
D[-/7-7-7-7-7-7-7-7-7-7-7-7-|
A[--------------------------|
E[--------------------------|

 Outro guitar solo
                             ~~~~~           ~~~   ~~~   ~~~

E|---------------------------------12----------------------------|
B|---------------------------15fb-----15-12------15----15----15--|
G|------------------------------------------14fb----14b---14b----|
D|---------------------------------------------------------------|
A|---------------------------------------------------------------|
E|-0-trem dive|-pull up-(0)---------------------------------------|

                      ~~~~~~~    ~~~~~~~~~~~~~~ ~~~~~       ~~~~
E|-------------------------------17fb-----------17fb--17-15-17fbp15-|
B|-----------------------------0------------------------------------|
G|-14-12-14brp12-14brp12--------------------------------------------|
D|------------------------------------------------------------------|
A|------------------------------------------------------------------|
E|------------------------------------------------------------------|

      ~~~~~~~~~~~~~~~~~~~~~~~~~~~~~~     ~~~~~~~~~~~~~    ~~~~~~~~~~
E|-17-17fb-------------------------------19fb-------------19fb-------|
B|---------17---17fb------------------17---------------17------------|
G|-------------------------------------------------------------------|
D|-------------------------------------------------------------------|
A|-------------------------------------------------------------------|
E|-------------------------------------------------------------------|

                     ~~~~~~~~~~~~~~~~~~~~~~~~~~  ~~~~~~
E|-19-17-15----14-15-15fb--15fb--15fb-------------------15-----------|
B|----------17-----------------------------------14b------15---------|
G|-----------------------------------------------14b---------r--p12--|
D|-------------------------------------------------------------------|
A|-------------------------------------------------------------------|
E|-------------------------------------------------------------------|

   h     h     ~~~~~           ~~~~~~~~~~        ~~~~
E|------------------------------------------------------|
B|------------------------------------------------------|
G|-14p12-14p12-14fb-r12----12-14fb-14------12----12---\-|
D|----------------------14--------------------14--------|
A|------------------------------------------------------|
E|------------------------------------------------------|

            ~~~~~~~~              ~~    ~~~    ~~~                  
E|----12----15fb-----r15-12----------12----------------------------|
B|-12----12-----------------12-15-15b---15br12-----12----12-15-12--|
G|---------------------------------------------14b----14-----------|
D|-----------------------------------------------------------------|
A|-----------------------------------------------------------------|
E|-----------------------------------------------------------------|

   ~~~~~             ~~~~~          ~~~~~     ~~~     ~~~     ~~~~
E|--------------------------------------------------------------------|
B|-------------12-15--------------------------------------------------|
G|-14b--r12-14-------14b--r12-14-12-14fb--r12-14b-r12-14b-r12-14b-r12-|
D|--------------------------------------------------------------------|
A|--------------------------------------------------------------------|
E|--------------------------------------------------------------------|

                                            ~~~~ 
E|--------------------------------------------------|
B|-12-----------------------------------------------|
G|----14-12-14b--r-14-12----------------------------|
D|-----------------------14-12----------------------|
A|-----------------------------14-13-12-10-11b---\--|
E|--------------------------------------------------|

        h                                         ~~~~~        ~~~~~
E|-0-0-------0-0--3/5-7--9--10--14-15-14-15-14-15-14b----------17fb--|
B|-5-3-------5-5--3/5-5--10-12---------------------------15-15-------|
G|-----0-2p0---------------------------------------------------------|
D|-------------------------------------------------------------------|
A|-------------------------------------------------------------------|
E|-------------------------------------------------------------------|

               ~~~~~~       ~~~~~~~~~~~~~
E|-17-15-------20fb--r17----15b----fb-fb--\--|
B|-------15/17-----------17------------------|
G|-------------------------------------------|
D|-------------------------------------------|
A|-------------------------------------------|
E|-------------------------------------------|
 
   ~~~~~~~          ~~    ~~~       ~~~~~~       ~~          ~~~~
E|----------------------------------------------------------------|
B|-12------12-15-12----12-----15-12--------15-12----12-15-12------|
G|-14b--14b---------14b---14b-------14b----------14b---------14b--|
D|----------------------------------------------------------------|
A|----------------------------------------------------------------|
E|----------------------------------------------------------------|

            ~~          ~~          ~~         ~~    h      ~~
E|---------------------------------------------------------------|
B|-12-15-12----12-15-12----12-15-12----12-15p12----12-15p12------|
G|----------14b---------14b---------14b---------14b---------14b--|
D|---------------------------------------------------------------|
A|---------------------------------------------------------------|
E|---------------------------------------------------------------|

      h           h           h           h           h           h
E|----------------------------------------------------------------------|
B|-12-15p12----12-15p12----12-15p12----12-15p12----12-15p12----12-15p12-|
G|----------14b---------14b---------14b---------14b---------14b---------|
D|----------------------------------------------------------------------|
A|----------------------------------------------------------------------|
E|----------------------------------------------------------------------|

      h           h           h           h           h         
E|----------------------------------------------------------|
B|-12-15p12----12-15p12----12-15p12----12-15p12----12-15p12-|
G|----------14b---------14b---------14b---------14b---------|
D|----------------------------------------------------------|
A|----------------------------------------------------------|
E|----------------------------------------------------------|

   ~~~~~~                                          ~~~
E|----------------------------12-14-15p14p12----12-----12----12-----|
B|-15fb--15p12----12-15p12-15----------------15----15b----15----15--|
G|-------------14---------------------------------------------------|
D|------------------------------------------------------------------|
A|------------------------------------------------------------------|
E|------------------------------------------------------------------|

      ~~~~                                          h ph     ph
E|-------------------------------------------------------------------|
B|-12---15---------------------------------------------7fb----7b-----|
G|----14b--15p14p12------------------------------2/7-9---------------|
D|------------------14-12--------------------------------------------|
A|------------------------14-16-12-10-12-14-10\----------------------|
E|-------------------------------------------------------------------|

Composição de Biff Byford / Graham Oliver / Paul Quinn / Steve Dawson
Colaboração e revisão:
  • Leonardo Lamesa
721 exibições
    • ½ Tom
    • A
    • Bb
    • B
    • C
    • Db
    • D
    • Eb
    • E
    • F
    • F#
    • G
    • Ab
  • Adicionar à lista

    0 comentários

    Ver todos os comentários

    Conseguiu tocar?

    0 Tocaram 0 Ainda não

    Grave um vídeo tocando Eagle Has Landed e nos envie!

    00:00 / 00:00
    outros vídeos desta música
    repetir qualidade Automático
    Outros vídeos desta música
    00:00 / 00:00
    Automático

    Cifra Club Pro

    Aproveite o Cifra Club com benefícios exclusivos e sem anúncios
    Cifra Club Pro
    Aproveite o Cifra Club com benefícios exclusivos e sem anúncios
    OK