Cifra Club

Aprenda

Redline

Saxon

Cifra: Principal (violão e guitarra)
tom: C
|----------------------------------|
|----------------------------------|
|----------------------------------|
|--2----7---5--7---5--7---5--7-----|
|--0-0----0------0------0----------|
|----------------------------------|

Chorus
|------------------------------------|
|------------------------------------|
|--7------5------3------5------------|Gtr
|--7------5------3------5------------| II
|--5------3------1------3------------|
|------------------------------------|
|                                    |
|------------------------------------|
|------------------------------------|
|------------------------------------|Gtr
|------------------------------------| I
|--5555553333333311111113333333------|
|------------------------------------|

INTRO
Composição de Saxon
Colaboração e revisão:
  • Leonardo Lamesa
412 exibições
    • ½ Tom
    • A
    • Bb
    • B
    • C
    • Db
    • D
    • Eb
    • E
    • F
    • F#
    • G
    • Ab
  • Adicionar à lista

    0 comentários

    Ver todos os comentários

    Conseguiu tocar?

    0 Tocaram 0 Ainda não

    Grave um vídeo tocando Redline e nos envie!

    00:00 / 00:00
    outros vídeos desta música
    repetir qualidade Automático
    Outros vídeos desta música
    00:00 / 00:00
    Automático

    Cifra Club Pro

    Aproveite o Cifra Club com benefícios exclusivos e sem anúncios
    Cifra Club Pro
    Aproveite o Cifra Club com benefícios exclusivos e sem anúncios
    OK