Cifra Club

Aprenda

The Devil Rides Out

Saxon

Tab de baixo: Principal
standard tuning

Intro & Verse:
|---------------|
|---------------|
|---------------|
|-5-5-5-5-5-5-5-|
- - - - - - - - 
Variation 1:
|---------------|
|---------------|
|---------------|
|-5-5-5-5-5-5-5-|
. . . . . . . 
Chorus:
|-----------------|
|-----------------|
|-----------------|
|-5-5-5-5-5-5-5-5-|
- - - - - - - - 
Bridge:
|-------------------------|
|-------------7--7--7--7--|
|-5--5--5--5--------------|
|-------------------------|
. . . . ^ ^ ^ ^
Solo Part:
|---------------------------------|
|---------------------------------|
|-7-7-7-7-7-7-7-7-----------------|
|-----------------5-5-5-5-5-5-5-5-|
the 2 chords plays only the guitar !!!
then return to beginning !!!
Composição de Biff Byford / Steve Dawson
Colaboração e revisão:
  • Taino Vieira
73 exibições

0 comentários

Ver todos os comentários

Conseguiu tocar?

0 Tocaram 0 Ainda não

Grave um vídeo tocando The Devil Rides Out e nos envie!

00:00 / 00:00
outros vídeos desta música
repetir qualidade Automático
Outros vídeos desta música
00:00 / 00:00
Automático

Cifra Club Pro

Aproveite o Cifra Club com benefícios exclusivos e sem anúncios
Cifra Club Pro
Aproveite o Cifra Club com benefícios exclusivos e sem anúncios
OK