Cifra Club

Seu

Scarcéus

Cifra: Principal (violão e guitarra)
exibições 30.590
Tom: D
         D                Bm
Queria lhe dizer que estou tão longe
      G                                     
Da perfeição ou algo assim, mal comecei e já me perdi
       A
Pois nessas horas as palavras fogem

D                                                 Bm
Só queria lhe pedir um pouco mais de paciência entenda
G
Se puder me aceite assim, e não espere mais de mim
A
O que me move é o prazer

    Bm     D            G
De ter a voz pra lhe falar
                        Bm
Que o tempo é tudo e vai
      D            G
Aos poucos te mostrar
    A        D
Que eu sou seu

D        A              Bm                     G                    D
Minha dor é pensar que talvez você nunca vai saber o quanto eu sou seu
       A                 Bm    A    G       D/F#    A
Não mudei tenho os meus defeitos, artifícios, mas serei sempre seu


Bm   G   D   A (Nessa parte faz assim):

e|-------------------------------------
b|-------------------------------------
g|-----0-------------0----------------- 2 vezes   (Riff 1)
d|---4--------0----7--------0----------
a|-2--------5----5-------7-------------
e|--------3------------5----------------

Segunda parte:

     D  Bm  G A
Horas fazem dias que fizeram valer todos esses anos
Desde sempre já sabia, nada iria atrapalhar meus planos
Sei que as vezes lhe pareço estranho
Mas cheguei até aqui só pra me guardar em ti, não me negue o prazer

    Bm     D             G  
De ter a voz pra lhe falar
                   Bm
O tempo é tudo e vai
      D             G
Aos poucos te mostrar
    A        D
Que eu sou seu

D        A              Bm                     G                    D
Minha dor é pensar que talvez você nunca vai saber o quanto eu sou seu
         A                Bm       G               A
Não mudei tenho meus defeitos, artifícios, mas serei sempre seu

Base Solo
Bm  D  G
Bm  D  G  A

SOLO:  

e|------2----5-3-2---2---5-3--------------------|------------------------------------------
b|-2/3----3--------3---3-----3-0-3-0--3-2-2-5-3-|-------7----------7-----------------------
g|----------------------------------------------|-----9---7------9---7-7-------7-6---------
d|----------------------------------------------|-9-9--------9-9---------9-7-9-------------
a|----------------------------------------------|------------------------------------------
e|----------------------------------------------|------------------------------------------ 

D        A               Bm                    G                    D
Minha dor é pensar que talvez você nunca vai saber o quanto eu sou seu
        A                Bm       G               A
Não mudei tenho meus defeitos, artifícios, mas serei sempre seu

Bm   G   D   A   (Repete o Riff 1)
Acordes para:
    Composição: Augusto Nogueira / Henrique Pappatella / Joao Marcio Colaboração e revisão:
    • Janaina Paulino
    • Luan Almeida
    • João Pinho

    0 comentários

    mostrar mais comentários

    Conseguiu tocar?

    8 tocaram 0 ainda não

    Grave um vídeo tocando Seu e mande pra gente!

    00:00 / 00:00
    outros vídeos desta música
    repetir qualidade Automático
    Outros vídeos desta música
    00:00 / 00:00
    Automático
    OK