Cifra Club

Aprenda

Cute Machines

Scars on Broadway

Cifra: Principal (violão e guitarra)
tom: C
OUtra música ae do SOB que eu achei =] e o legal que no final tem uma legenda de todos os efeitos!

S S S E  E  S S E  S S E  S    S S S E  E  S S E  S S E  S  
E||------------------------------|------------------------------|
B||------------------------------|------------------------------|
G||--7-7-7-7--7--7-7-7--7-7-8--8-|--7-7-7-7--7--7-7-7--7-7-8--8-|
D||--0-0-0-0--0--0-0-0--0-0-0--0-|--0-0-0-0--0--0-0-0--0-0-0--0-|
A||------------------------------|------------------------------|
E||------------------------------|------------------------------|


  S S S E  E  S S E  S S E  S    S S S E  E  S S E  S S E  S  
------------------------------|------------------------------|
------------------------------|------------------------------|
--7-7-7-7--7--7-7-7--7-7-8--8-|--7-7-7-7--7--7-7-7--7-7-8--8-|
--0-0-0-0--0--0-0-0--0-0-0--0-|--0-0-0-0--0--0-0-0--0-0-0--0-|
------------------------------|------------------------------|
------------------------------|------------------------------|

  S S S E  E  S S E  S S E  S    S S S E  E  S S E  S S E  S  
------------------------------|------------------------------|
------------------------------|------------------------------|
--7-7-7-7--7--7-7-7--7-7-8--8-|--7-7-7-7--7--7-7-7--7-7-8--8-|
--0-0-0-0--0--0-0-0--0-0-0--0-|--0-0-0-0--0--0-0-0--0-0-0--0-|
------------------------------|------------------------------|
------------------------------|------------------------------|

  S S S E  E  S S E  S S E  S    S S S E  E  S S E  S S E  S  
------------------------------|------------------------------|
------------------------------|------------------------------|
--7-7-7-7--7--7-7-7--7-7-8--8-|--7-7-7-7--7--7-7-7--7-7-8--8-|
--0-0-0-0--0--0-0-0--0-0-0--0-|--0-0-0-0--0--0-0-0--0-0-0--0-|
------------------------------|------------------------------|
------------------------------|------------------------------|

  S S S S S S S S S S S S S S S S  
----------------------------------|
----------------------------------|
----------------------------------|
--7-7-7-7-7-7-7-7-7-7-7-7-7-7-7-7-|
--5-5-5-5-5-5-5-5-5-5-5-5-5-5-5-5-|
----------------------------------|

   S  S  S  S  S  S  S  S  S  S  S  S  S  S  S  S  
--------------------------------------------------|
--------------------------------------------------|
--------------------------------------------------|
--11-11-11-11-11-11-11-11-11-11-11-11-11-11-11-11-|
---9--9--9--9--9--9--9--9--9--9--9--9--9--9--9--9-|
--------------------------------------------------|

   S  S  S  S  S  S  S  S  S  S  S  S  S  S  S  S  
--------------------------------------------------|
--------------------------------------------------|
--------------------------------------------------|
--15-15-15-15-15-15-15-15-15-15-15-15-15-15-15-15-|
--13-13-13-13-13-13-13-13-13-13-13-13-13-13-13-13-|
--------------------------------------------------|

   S  S  S  S  S  S  S  S  S  S  S  S  S  S  S  S  
--------------------------------------------------|
--------------------------------------------------|
--------------------------------------------------|
--14-14-14-14-14-14-14-14-14-14-14-14-14-14-14-14-|
--12-12-12-12-12-12-12-12-12-12-12-12-12-12-12-12-|
--------------------------------------------------|

  S S S S S S S S S S S S S S S S  
----------------------------------|
----------------------------------|
----------------------------------|
--7-x-7-x-7-x-7-x-7-x-7-x-7-x-7-x-|
--5-x-5-x-5-x-5-x-5-x-5-x-5-x-5-x-|
----------------------------------|

   S  S  S  S  S  S  S  S  S  S  S  S  S  S  S  S  
--------------------------------------------------|
--------------------------------------------------|
--------------------------------------------------|
--11--x-11--x-11--x-11--x-11--x-11--x-11--x-11--x-|
---9--x--9--x--9--x--9--x--9--x--9--x--9--x--9--x-|
--------------------------------------------------|

   S  S  S  S  S  S  S S  S  S  S  S  S  S  S  S  
-------------------------------------------------|
-------------------------------------------------|
-------------------------------------------------|
--15--x-15--x-15--x-15-x-15--x-15--x-15--x-15--x-|
--13--x-13--x-13--x-13-x-13--x-13--x-13--x-13--x-|
-------------------------------------------------|

   S  S  S  S  S  S  S  S  S  S  S  S  S  S  S  S  
--------------------------------------------------|
--------------------------------------------------|
--------------------------------------------------|
--14--x-14--x-14--x-14--x-14--x-14--x-14--x-14--x-|
--12--x-12--x-12--x-12--x-12--x-12--x-12--x-12--x-|
--------------------------------------------------|

  S S S E  E  S S E  S S E  S    S S S E  E  S S E  S S E  S  
------------------------------|------------------------------|
------------------------------|------------------------------|
--7-7-7-7--7--7-7-7--7-7-8--8-|--7-7-7-7--7--7-7-7--7-7-8--8-|
--7-7-7-7--7--7-7-7--7-7-8--8-|--7-7-7-7--7--7-7-7--7-7-8--8-|
--5-5-5-5--5--5-5-5--5-5-6--6-|--5-5-5-5--5--5-5-5--5-5-6--6-|
------------------------------|------------------------------|

  S S S E  E  S S E  S S E  S    S S S E  E  S S E  S S E  S  
------------------------------|------------------------------|
------------------------------|------------------------------|
--7-7-7-7--7--7-7-7--7-7-8--8-|--7-7-7-7--7--7-7-7--7-7-8--8-|
--7-7-7-7--7--7-7-7--7-7-8--8-|--7-7-7-7--7--7-7-7--7-7-8--8-|
--5-5-5-5--5--5-5-5--5-5-6--6-|--5-5-5-5--5--5-5-5--5-5-6--6-|
------------------------------|------------------------------|

  S S S E  E  S S E  S S E  S    S S S E  E  S S E  S S E  S  
------------------------------|------------------------------|
------------------------------|------------------------------|
--7-7-7-7--7--7-7-7--7-7-8--8-|--7-7-7-7--7--7-7-7--7-7-8--8-|
--7-7-7-7--7--7-7-7--7-7-8--8-|--7-7-7-7--7--7-7-7--7-7-8--8-|
--5-5-5-5--5--5-5-5--5-5-6--6-|--5-5-5-5--5--5-5-5--5-5-6--6-|
------------------------------|------------------------------|

  S S S E  E  S S E  S S E  S    S S S E  E  S S E  S S E  S  
------------------------------|------------------------------|
------------------------------|------------------------------|
--7-7-7-7--7--7-7-7--7-7-8--8-|--7-7-7-7--7--7-7-7--7-7-8--8-|
--7-7-7-7--7--7-7-7--7-7-8--8-|--7-7-7-7--7--7-7-7--7-7-8--8-|
--5-5-5-5--5--5-5-5--5-5-6--6-|--5-5-5-5--5--5-5-5--5-5-6--6-|
------------------------------|------------------------------|

  S S S S S S S S S S S S S S S S  
----------------------------------|
----------------------------------|
----------------------------------|
--7-7-7-7-7-7-7-7-7-7-7-7-7-7-7-7-|
--5-5-5-5-5-5-5-5-5-5-5-5-5-5-5-5-|
----------------------------------|

   S  S  S  S  S  S  S  S  S  S  S  S  S  S  S  S  
--------------------------------------------------|
--------------------------------------------------|
--------------------------------------------------|
--11-11-11-11-11-11-11-11-11-11-11-11-11-11-11-11-|
---9--9--9--9--9--9--9--9--9--9--9--9--9--9--9--9-|
--------------------------------------------------|

   S  S  S  S  S  S  S  S  S  S  S  S  S  S  S  S  
--------------------------------------------------|
--------------------------------------------------|
--------------------------------------------------|
--15-15-15-15-15-15-15-15-15-15-15-15-15-15-15-15-|
--13-13-13-13-13-13-13-13-13-13-13-13-13-13-13-13-|
--------------------------------------------------|

   S  S  S  S  S  S  S  S  S  S  S  S  S  S  S  S  
--------------------------------------------------|
--------------------------------------------------|
--------------------------------------------------|
--14-14-14-14-14-14-14-14-14-14-14-14-14-14-14-14-|
--12-12-12-12-12-12-12-12-12-12-12-12-12-12-12-12-|
--------------------------------------------------|

  S S S S S S S S S S S S S S S S  
----------------------------------|
----------------------------------|
----------------------------------|
--7-x-7-x-7-x-7-x-7-x-7-x-7-x-7-x-|
--5-x-5-x-5-x-5-x-5-x-5-x-5-x-5-x-|
----------------------------------|

   S  S  S  S  S  S  S  S  S  S  S  S  S  S  S  S  
--------------------------------------------------|
--------------------------------------------------|
--------------------------------------------------|
--11--x-11--x-11--x-11--x-11--x-11--x-11--x-11--x-|
---9--x--9--x--9--x--9--x--9--x--9--x--9--x--9--x-|
--------------------------------------------------|

   S  S  S  S  S  S  S S  S  S  S  S  S  S  S  S  
-------------------------------------------------|
-------------------------------------------------|
-------------------------------------------------|
--15--x-15--x-15--x-15-x-15--x-15--x-15--x-15--x-|
--13--x-13--x-13--x-13-x-13--x-13--x-13--x-13--x-|
-------------------------------------------------|

   S  S  S  S  S  S  S  S  S  S  S  S  S  S  S  S    W                 
--------------------------------------------------|-------------------|
--------------------------------------------------|-------------------|
--------------------------------------------------|-------------------|
--14--x-14--x-14--x-14--x-14--x-14--x-14--x-14--x-|-------------------|
--12--x-12--x-12--x-12--x-12--x-12--x-12--x-12--x-|--0----------------|
--------------------------------------------------|--0----------------|

  W                   W                   W                 
-------------------|-------------------|-------------------|
-------------------|-------------------|-------------------|
-------------------|-------------------|-------------------|
-------------------|-------------------|-------------------|
--0----------------|--0----------------|--0----------------|
--0----------------|--0----------------|--0----------------|

   T  T  T  T  T  T  T  T  T  T  T  T  T  T  T  T  T  T  T  T  T  T  T  T  T  T 
--------------------------------------------------------------------------------
--------------------------------------------------------------------------------
--18-18-18-18-18-18-18-18-18-18-18-18-18-18-18-18-18-18-18-18-18-18-18-18-19-19-
---x--x--x--x--x--x--x--x--x--x--x--x--x--x--x--x--x--x--x--x--x--x--x--x--x--x-
--16-16-16-16-16-16-16-16-16-16-16-16-16-16-16-16-16-16-16-16-16-16-16-16-17-17-
--------------------------------------------------------------------------------

   T  T  T  T  T  T  T  T  T  T  T  T  T  T  T  T  T  T  T  T  T  T  T  T  T  T 
--------------------------------------------------------------------------------
--------------------------------------------------------------------------------
--18-18-18-18-18-18-18-18-18-18-18-18-18-18-18-18-18-18-18-18-18-18-18-18-19-19-
---x--x--x--x--x--x--x--x--x--x--x--x--x--x--x--x--x--x--x--x--x--x--x--x--x--x-
--16-16-16-16-16-16-16-16-16-16-16-16-16-16-16-16-16-16-16-16-16-16-16-16-17-17-
--------------------------------------------------------------------------------

   T  T  T  T  T  T  T  T  T  T  T  T  T  T  T  T  T  T  T  T  T  T  T  T  T  T 
--------------------------------------------------------------------------------
--------------------------------------------------------------------------------
--15-15-15-15-15-15-15-15-15-15-15-15-15-15-15-15-15-15-15-15-15-15-15-15-19-19-
---x--x--x--x--x--x--x--x--x--x--x--x--x--x--x--x--x--x--x--x--x--x--x--x--x--x-
--13-13-13-13-13-13-13-13-13-13-13-13-13-13-13-13-13-13-13-13-13-13-13-13-17-17-
--------------------------------------------------------------------------------

   T  T  T  T  T  T  T  T  T  T  T  T  T  T  T  T  T  T  T  T  T  T  T  T  T  T 
--------------------------------------------------------------------------------
--------------------------------------------------------------------------------
--14-14-14-14-14-14-14-14-14-14-14-14-14-14-14-14-14-14-14-14-14-14-14-14-14-14-
---x--x--x--x--x--x--x--x--x--x--x--x--x--x--x--x--x--x--x--x--x--x--x--x--x--x-
--12-12-12-12-12-12-12-12-12-12-12-12-12-12-12-12-12-12-12-12-12-12-12-12-12-12-
--------------------------------------------------------------------------------

   T  T  T  T  T  T  T  T  T  T  T  T  T  T  T  T  T  T  T  T  T  T  T  T  T  T 
--------------------------------------------------------------------------------
--------------------------------------------------------------------------------
--18-18-18-18-18-18-18-18-18-18-18-18-18-18-18-18-18-18-18-18-18-18-18-18-19-19-
---x--x--x--x--x--x--x--x--x--x--x--x--x--x--x--x--x--x--x--x--x--x--x--x--x--x-
--16-16-16-16-16-16-16-16-16-16-16-16-16-16-16-16-16-16-16-16-16-16-16-16-17-17-
--------------------------------------------------------------------------------

   T  T  T  T  T  T  T  T  T  T  T  T  T  T  T  T  T  T  T  T  T  T  T  T  T  T 
--------------------------------------------------------------------------------
--------------------------------------------------------------------------------
--18-18-18-18-18-18-18-18-18-18-18-18-18-18-18-18-18-18-18-18-18-18-18-18-19-19-
---x--x--x--x--x--x--x--x--x--x--x--x--x--x--x--x--x--x--x--x--x--x--x--x--x--x-
--16-16-16-16-16-16-16-16-16-16-16-16-16-16-16-16-16-16-16-16-16-16-16-16-17-17-
--------------------------------------------------------------------------------

   T  T  T  T  T  T  T  T  T  T  T  T  T  T  T  T  T  T  T  T  T  T  T  T  T  T 
--------------------------------------------------------------------------------
--------------------------------------------------------------------------------
--15-15-15-15-15-15-15-15-15-15-15-15-15-15-15-15-15-15-15-15-15-15-15-15-19-19-
---x--x--x--x--x--x--x--x--x--x--x--x--x--x--x--x--x--x--x--x--x--x--x--x--x--x-
--13-13-13-13-13-13-13-13-13-13-13-13-13-13-13-13-13-13-13-13-13-13-13-13-17-17-
--------------------------------------------------------------------------------

   T  T  T  T  T  T  T  T  T  T  T  T  T  T  T  T  T  T  T  T  T  T  T  T  T  T 
--------------------------------------------------------------------------------
--------------------------------------------------------------------------------
--14-14-14-14-14-14-14-14-14-14-14-14-14-14-14-14-14-14-14-14-14-14-14-14-14-14-
---x--x--x--x--x--x--x--x--x--x--x--x--x--x--x--x--x--x--x--x--x--x--x--x--x--x-
--12-12-12-12-12-12-12-12-12-12-12-12-12-12-12-12-12-12-12-12-12-12-12-12-12-12-
--------------------------------------------------------------------------------

  S S S E  E  S S E  S S E  S    S S S E  E  S S E  S S E  S  
------------------------------|------------------------------|
------------------------------|------------------------------|
--7-7-7-7--7--7-7-7--7-7-8--8-|--7-7-7-7--7--7-7-7--7-7-8--8-|
--7-7-7-7--7--7-7-7--7-7-8--8-|--7-7-7-7--7--7-7-7--7-7-8--8-|
--5-5-5-5--5--5-5-5--5-5-6--6-|--5-5-5-5--5--5-5-5--5-5-6--6-|
------------------------------|------------------------------|

  S S S E  E  S S E  S S E  S    S S S E  E  S S E  S S E  S  
------------------------------|------------------------------|
------------------------------|------------------------------|
--7-7-7-7--7--7-7-7--7-7-8--8-|--7-7-7-7--7--7-7-7--7-7-8--8-|
--7-7-7-7--7--7-7-7--7-7-8--8-|--7-7-7-7--7--7-7-7--7-7-8--8-|
--5-5-5-5--5--5-5-5--5-5-6--6-|--5-5-5-5--5--5-5-5--5-5-6--6-|
------------------------------|------------------------------|

  S S S E  E  S S E  S S E  S    S S S E  E  S S E  S S E  S  
------------------------------|------------------------------|
------------------------------|------------------------------|
--7-7-7-7--7--7-7-7--7-7-8--8-|--7-7-7-7--7--7-7-7--7-7-8--8-|
--7-7-7-7--7--7-7-7--7-7-8--8-|--7-7-7-7--7--7-7-7--7-7-8--8-|
--5-5-5-5--5--5-5-5--5-5-6--6-|--5-5-5-5--5--5-5-5--5-5-6--6-|
------------------------------|------------------------------|

  S S S E  E  S S E  S S E  S    S S S E  E  S S E  S S E  S  
------------------------------|------------------------------|
------------------------------|------------------------------|
--7-7-7-7--7--7-7-7--7-7-8--8-|--7-7-7-7--7--7-7-7--7-7-8--8-|
--7-7-7-7--7--7-7-7--7-7-8--8-|--7-7-7-7--7--7-7-7--7-7-8--8-|
--5-5-5-5--5--5-5-5--5-5-6--6-|--5-5-5-5--5--5-5-5--5-5-6--6-|
------------------------------|------------------------------|

  S S S S S S S S S S S S S S S S  
----------------------------------|
----------------------------------|
----------------------------------|
--7-7-7-7-7-7-7-7-7-7-7-7-7-7-7-7-|
--5-5-5-5-5-5-5-5-5-5-5-5-5-5-5-5-|
----------------------------------|

   S  S  S  S  S  S  S  S  S  S  S  S  S  S  S  S  
--------------------------------------------------|
--------------------------------------------------|
--------------------------------------------------|
--11-11-11-11-11-11-11-11-11-11-11-11-11-11-11-11-|
---9--9--9--9--9--9--9--9--9--9--9--9--9--9--9--9-|
--------------------------------------------------|

   S  S  S  S  S  S  S  S  S  S  S  S  S  S  S  S  
--------------------------------------------------|
--------------------------------------------------|
--------------------------------------------------|
--15-15-15-15-15-15-15-15-15-15-15-15-15-15-15-15-|
--13-13-13-13-13-13-13-13-13-13-13-13-13-13-13-13-|
--------------------------------------------------|

   S  S  S  S  S  S  S  S  S  S  S  S  S  S  S  S  
--------------------------------------------------|
--------------------------------------------------|
--------------------------------------------------|
--14-14-14-14-14-14-14-14-14-14-14-14-14-14-14-14-|
--12-12-12-12-12-12-12-12-12-12-12-12-12-12-12-12-|
--------------------------------------------------|

  S S S S S S S S S S S S S S S S  
----------------------------------|
----------------------------------|
----------------------------------|
--7-x-7-x-7-x-7-x-7-x-7-x-7-x-7-x-|
--5-x-5-x-5-x-5-x-5-x-5-x-5-x-5-x-|
----------------------------------|

   S  S  S  S  S  S  S  S  S  S  S  S  S  S  S  S  
--------------------------------------------------|
--------------------------------------------------|
--------------------------------------------------|
--11--x-11--x-11--x-11--x-11--x-11--x-11--x-11--x-|
---9--x--9--x--9--x--9--x--9--x--9--x--9--x--9--x-|
--------------------------------------------------|

   S  S  S  S  S  S  S S  S  S  S  S  S  S  S  S  
-------------------------------------------------|
-------------------------------------------------|
-------------------------------------------------|
--15--x-15--x-15--x-15-x-15--x-15--x-15--x-15--x-|
--13--x-13--x-13--x-13-x-13--x-13--x-13--x-13--x-|
-------------------------------------------------|

   S  S  S  S  S  S  S  S  S  S  S  S  S  S  S  S    S   
--------------------------------------------------|----||
--------------------------------------------------|----||
--------------------------------------------------|----||
--14--x-14--x-14--x-14--x-14--x-14--x-14--x-14--x-|----||
--12--x-12--x-12--x-12--x-12--x-12--x-12--x-12--x-|--0-||
--------------------------------------------------|--0-||

Duration Legend
---------------
W - whole
H - half
Q - quarter
E - 8th
S - 16th
T - 32nd
X - 64th
. - note dotted
|-n-|  - n-tuplets

Tablature Legend
----------------
L - tied note
x - dead note
g - grace note
(n) - ghost note
> - accentuded note
NH - natural harmonic
AH - artificial harmonic
TH - tapped harmonic
SH - semi harmonic
PH - pitch harmonic
h - hammer on
p - pull off
b - bend
br - bendRelease
pb - preBend
pbr - preBendRelease
brb - bendReleaseBend
\n/ - tremolo bar dip
\n - tremolo bar dive
-/n - tremolo bar Release up
/n\ - tremolo bar inverted dip
/n - tremolo bar return
-\n - tremolo bar Release down
S - shift slide
s - legato slide
/ -  slide into from below or out of upwards
\ -  slide into from above or out of downwards
~ - vibrato
W - wide vibrato
tr - trill
TP - tremolo picking
T - tapping
S - slap
P - pop
< - fade in
^ - brush up
v - brush down
Composição de Daron Malakian
Colaboração e revisão:
  • Henrique Lyra
2.115 exibições
    • ½ Tom
    • A
    • Bb
    • B
    • C
    • Db
    • D
    • Eb
    • E
    • F
    • F#
    • G
    • Ab
  • Adicionar à lista

    0 comentários

    Ver todos os comentários

    Conseguiu tocar?

    0 Tocaram 0 Ainda não

    Grave um vídeo tocando Cute Machines e nos envie!

    00:00 / 00:00
    Outros vídeos desta música
    Repetir Qualidade Automático
    Outros vídeos desta música
    00:00 / 00:00
    Automático

    Cifra Club Pro

    Aproveite o Cifra Club com benefícios exclusivos e sem anúncios
    Cifra Club Pro
    Aproveite o Cifra Club com benefícios exclusivos e sem anúncios
    OK