Cifra Club

Aprenda

Enemy

Scars on Broadway

Cifra: Principal (violão e guitarra)
tom: B
Está ai mais uma música do SOB

D#|-----------------------------------------------------| 
A#|--8p6-6-6-8p6-6-6-8p6------6-6-8p6-6-6-8p6-6---------| 
F#|----------------------9-7--------------------5-5-5s7-| 

D#|--------------------------------------------------------------| 
A#|--6-6-8p6-6-6-8p6-6-6-8p6-----6-6-8p6-6-6-8p6-6-6-8p6-6-6-8p6-| 
F#|--------------------------9-7---------------------------------| 

RIFF B: 
   ……………………(x3) 
|-(0)------------|--0--0--0--0--| 
|--3--3--3--3----|--1--1--1--1--| 
|--2--2--2--0----|--0--0--0--0--| 
|--0--0--0--0----|--2--2--2--2--| (x 4) 
|--0--0--0--0----|--3--3--3--3--| 
|--0--0--0--0----|--------------| 

RIFF C: 

- PM…,----------PM…, 
|--------------------------------| 
|--------------------------------| 
|---------10s12-------9s10-------| 
|--0-0------------0-0------------| (x 4) 
|----------8s10--------7s8-------| 
|--------------------------------| 

RIFF B´: 
……………………(x3) 
|----------------|--0--0--0--0--| 
|----------------|--1--1--1--1--| 
|----------------|--0--0--0--0--| 
|---(RIFF C)-----|--2--2--2--2--| (x 4) 
|----------------|--3--3--3--3--| 
|----------------|--------------| 

RIFF B x 2 

RIFF B´´: 

|--0----------0-----------------| 
|--3----3--------3--------------| 
|--2--------2------2------5-----| 
|--0--------------------2-------| 
|--0------------------3------3--| 
|--0----------------------------| 

|--0---------------------------| 
|--3---------------------------| 
|--2----------------------5----| 
|--0--------------------2------| 
|--0----3p0----------3------3--| 
|--0---------3-0---------------| 

|--0---------------------------| 
|--3---------------------------| 
|--2-----------------------5---| 
|--0----------3-0-------2------| 
|--0----3p0----------3-------3-| 
|--0---------------------------| 

...........................We are on 
|--0------------------0--------| 
|--3------------------1--------| 
|--2------------------0--------| 
|--0------------------2--------| 
|--0----3p0-----------3--------| 
|--0---------3-0---------------| 

Drugs.............................we are on 
|--0--------------0-----------0---0--------| 
|--3------------3------3------1---1--------| 
|--2------0h2------------2----0---0--------| 
|--0--------------------------2---2--------| 
|--0--------------------------3---3--------| 
|--0---------------------------------------| 

Drugs, 
|--0--------------0--------------------| 
|--3------------3------3-------3-------| 
|--2------0h2------------2p0----2------| 
|--0-----------------------------------| 
|--0-----------------------------------| 
|--0-----------------------------------| 

....we.....are.on.drugs...........we are on 
|--0--0---0---0--0---------------0--0-----| 
|--3--3---1---1--3---------------1--1-----| 
|--2--2---0---0--2---------------0--0-----| 
|--0--0---2---2--0---------------2--2-----| 
|--0--0---3---3--0-3p0----------3--3------| 
|--0--0----------0-------3--0-------------| 

Drugs.....................we are on 
|--0---------------------0---0---------| 
|--3---------------------1---1---------| 
|--2---------------------0---0---------| 
|--0----------3-0--------2---2---------| 
|--0----3p0--------------3---3---------| 
|--0-----------------------------------| 

drugs..................baby...we are on drugs 
.....................................do you like drugs? 
|--0--0---------------------|--0-----0------0----| 
|--3--3---------------------|--3-----1------3----| 
|--2--2---------------------|--2-----0------2----| 
|--0--0---------------------|--0-----2------0----| 
|--0--0----3p0--------------|--0-----3------0----| 
|--0--0----------3--0-------|--0------------0----| 

Composição de Daron Malakian
Colaboração e revisão:
  • Henrique Lyra
6.162 exibições
    • ½ Tom
    • A
    • Bb
    • B
    • C
    • Db
    • D
    • Eb
    • E
    • F
    • F#
    • G
    • Ab
  • Adicionar à lista

    0 comentários

    Ver todos os comentários
    00:00 / 00:00
    Outros vídeos desta música
    Repetir Qualidade Automático
    Outros vídeos desta música
    00:00 / 00:00
    Automático

    Cifra Club Pro

    Aproveite o Cifra Club com benefícios exclusivos e sem anúncios
    Cifra Club Pro
    Aproveite o Cifra Club com benefícios exclusivos e sem anúncios
    OK