Cifra Club

Aprenda

Guns Are Loaded

Scars on Broadway

Cifra: Principal (violão e guitarra)
tom: A
Afinação: C# G# C# F# A# D#

Início (sem bateria) (8x)
E|-----------------------|--------------------|
B|-----------------------|--------------------|
G|-----------------------|--------------------|
D|-----3--5-----3--2-----|--2-----3-----2-----|
A|--------------------0--|-----0-----0-----0--|
E|--0--------3-----------|--------------------|

Parte 2 (guitarra 1) (com bateria) (8x)
E|-----------------------|--------------------|
B|-----------------------|--------------------|
G|-----------------------|--------------------|
D|-----3--5-----3--2-----|--2-----3-----2-----|
A|--------------------0--|-----0-----0-----0--|
E|--0--------3-----------|--------------------|

Parte 2 (guitarra 2) (com bateria) (8x)
E|-------------------------------|
B|-------------------------------|
G|-------------------------------|
D|--------3-----------3--2-------|
A|-----0-----------3----------0--|
E|--0-----------3----------------|

Guitarra 2 entra quando a bateria começa

Riff (6x)
E|--------------------------------|-------------------|
B|--------------------------------|-------------------|
G|--------------------------------|-------------------|
D|--0-0-------------0-0--------2--|--0-0--------2--3--|
A|--0-0--3--5--5----0-0--2--3-----|--0-0--2--3--------|
E|--0-0-------------0-0-----------|--0-0--------------|

E|-----------------------------------|
B|-----------------------------------|
G|-----------------------------------|
D|--7/3--3p2p0--3p2p0--3p2p0--3p2p0--|
A|-----------------------------------|
E|-----------------------------------|

Ponte (Parte 1)
E|-------------------------|
B|-------------------------|
G|-------------------------|
D|--8-8-8-8-8/10-10-10-10--|
A|--8-8-8-8-8/10-10-10-10--|
E|--8-8-8-8-8/10-10-10-10--|

E|--------------------------------|-------------------|
B|--------------------------------|-------------------|
G|--------------------------------|-------------------|
D|--0-0-------------0-0--------2--|--0-0--------2--3--|
A|--0-0--3--5--5----0-0--2--3-----|--0-0--2--3--------|
E|--0-0-------------0-0-----------|--0-0--------------|

Ponte (Parte 2)
E|-----------------------------------|
B|-----------------------------------|
G|-----------------------------------|
D|--8-8-8-8-8/10-10-10-10------------|
A|--8-8-8-8-8/10-10-10-10------------|
E|--8-8-8-8-8/10-10-10-10------------|

Passagem para o final (8x)
E|----------------------------------------------|
B|----------------------------------------------|
G|----------------------------------------------|
D|--0--0-0-0-0----3--3-3-3-3----7--7-7-7-7-7-7--|
A|--0--0-0-0-0----3--3-3-3-3----7--7-7-7-7-7-7--|
E|--0--0-0-0-0----3--3-3-3-3----7--7-7-7-7-7-7--|

Final (4x)
E|--------------------------------|-------------------|
B|--------------------------------|-------------------|
G|--------------------------------|-------------------|
D|--0-0-------------0-0--------2--|--0-0--------2--3--|
A|--0-0--3--5--5----0-0--2--3-----|--0-0--2--3--------|
E|--0-0-------------0-0-----------|--0-0--------------|

E|-----------------------------------|
B|-----------------------------------|
G|-----------------------------------|
D|--7/3--3p2p0--3p2p0--3p2p0--3p2p0--|
A|-----------------------------------|
E|-----------------------------------|

Powerchord Final
E|-----|
B|-----|
G|-----|
D|--0--|
A|--0--|
E|--0--|
Composição de Daron Malakian
Colaboração e revisão:
  • Luiz Zanette
  • Bruno Garcia
2.843 exibições
    • ½ Tom
    • A
    • Bb
    • B
    • C
    • Db
    • D
    • Eb
    • E
    • F
    • F#
    • G
    • Ab
  • Adicionar à lista

    0 comentários

    Ver todos os comentários

    Conseguiu tocar?

    4 Tocaram 1 Ainda não

    Grave um vídeo tocando Guns Are Loaded e nos envie!

    00:00 / 00:00
    Outros vídeos desta música
    Repetir Qualidade Automático
    Outros vídeos desta música
    00:00 / 00:00
    Automático

    Cifra Club Pro

    Aproveite o Cifra Club com benefícios exclusivos e sem anúncios
    Cifra Club Pro
    Aproveite o Cifra Club com benefícios exclusivos e sem anúncios
    OK