Cifra Club

Aprenda

Hungry Ghost

Scars on Broadway

Cifra: Principal (violão e guitarra)
tom: Ab (forma dos acordes no tom de A) Afinação: Eb Ab Db Gb Bb Eb
Afinaçao C# G# C# F# A# D#

[Intro]

E|---------------------------------------------------------------|
A|7--8-------8---10----8---8--7---11--10-------8-----8---8--7----|
G|--7--7----7---7--------7----------7---7-----7---------7--------|
D|---7--7--7--7-----7-----------------7---7--7-----7-------------|
A|---------------------------------------------------------------|
E|---------------------------------------------------------------|

E|---------------------------------------------------------------|
A|7--8-------8---10----8---8--7---11--10-------8-----8---8--7----|
G|--7--7----7---7--------7----------7---7-----7---------7----7--7|
D|---7--7--7--7-----7-----------------7---7--7-----7-------------|
A|---------------------------------------------------------------|
E|---------------------------------------------------------------|


(Riff 2)

E|-----------------------|
B|-----------------------|
G|-----------------------|
D|-----0--0--0---0--0----|
A|----0--0--0--0--0--0---|
E|---8--7--5--4--0-------|

Lying there inside of a tomb
Like lying there in your mother's womb
Written bare in blood that was red were following the book of the dead

(Riff 3)

E|------------------------------------|
B|------------------------------------|
G|------------------------------------|
D|-----0--0--0----0-----0--0--0--0--0-|
A|----0--0--0---0--0---0--0--0--0--0--|
E|---4--5--7-~~8------0--0--0--0--0---|
Feed the hungry ghost
Feed the hungry ghost

(Riff 4)
E|-----------------------------------------------------|
B|-----------------------------------------------------|
G|-----------------------------------------------------|
D|------0---0---0-----------------------0--0--0--0--0--|
A|-----0---0---0-----------------------0--0--0--0--0---|
E|---10--10--8----12--10--8--8--10--0--0--0--0--0------|

All we are looking for is lives
All we are searching for is lives

Oooooooooooooooooh yeeeeeeeah

E|---------------------------------------------------------------|
A|7--8-------8---10----8---8--7---11--10-------8-----8---8--7----|
G|--7--7----7---7--------7----------7---7-----7---------7--------|
D|---7--7--7--7-----7-----------------7---7--7-----7-------------|
A|---------------------------------------------------------------|
E|---------------------------------------------------------------|

E|---------------------------------------------------------------|
A|7--8-------8---10----8---8--7---11--10-------8-----8---8--7----|
G|--7--7----7---7--------7----------7---7-----7---------7----7--7|
D|---7--7--7--7-----7-----------------7---7--7-----7-------------|
A|---------------------------------------------------------------|
E|---------------------------------------------------------------|

(Riff 5)

E|--------------------------------------|
B|-13--13--11--15--13--11--11--13--10---|
G|--------------------------------------|
D|--------------------------------------|
A|--------------------------------------|
E|--------------------------------------|

E|----------------------------------------|
B|--8--10--11--11--11--11--10--8--8~10--7-|
G|----------------------------------------|
D|----------------------------------------|
A|----------------------------------------|
E|----------------------------------------|
Composição de Daron Malakian
Colaboração e revisão:
  • Mayara Silva
254 exibições
    • ½ Tom
    • A
    • Bb
    • B
    • C
    • Db
    • D
    • Eb
    • E
    • F
    • F#
    • G
    • Ab
  • Adicionar à lista

    0 comentários

    Ver todos os comentários

    Conseguiu tocar?

    0 Tocaram 0 Ainda não

    Grave um vídeo tocando Hungry Ghost e nos envie!

    00:00 / 00:00
    Outros vídeos desta música
    Repetir Qualidade Automático
    Outros vídeos desta música
    00:00 / 00:00
    Automático

    Cifra Club Pro

    Aproveite o Cifra Club com benefícios exclusivos e sem anúncios
    Cifra Club Pro
    Aproveite o Cifra Club com benefícios exclusivos e sem anúncios
    OK