Cifra Club

Aprenda

Insane

Scars on Broadway

Cifra: Principal (violão e guitarra)
tom: D
[INTRO]
G|-----9-9-9-9-9-9-9-9---9-9-9-9-9-9-9-9---8-8-8-8-8-8-8-8---8-8-8-8-8-8-8-8--
A|-----7-7-7-6-6-6-6-6---7-7-7-6-6-6-6-6---6-6-6-7-7-7-7-7---6-6-6-7-7-7-7-7--
(4x) *na 3ª vez entra a bateria*

[ESTROFE]
      So                                   many ways  to hide
G|-----9-9-9-9-9-9-9-9---9-9-9-9-9-9-9-9---8-8-8-8-8-8-8-8---8-8-8-8-8-8-8-8--
A|-----7-7-7-6-6-6-6-6---7-7-7-6-6-6-6-6---6-6-6-7-7-7-7-7---6-6-6-7-7-7-7-7--

       I see                           the trouble deep   inside
G|-----9-9-9-9-9-9-9-9---9-9-9-9-9-9-9-9---8-8-8-8-8-8-8-8---8-8-8-8-8-8-8-8--
A|-----7-7-7-6-6-6-6-6---7-7-7-6-6-6-6-6---6-6-6-7-7-7-7-7---6-6-6-7-7-7-7-7--


[REFRÃO]
          Let's go       insane again       Bring back the   pain again         |
G|-----6-6-6-6-6-6-6-6---6-6-6-6-6-6-6-6---9-9-9-9-9-9-9-9---9-9-9-9-9-9-9-9--  | (2x)
A|-----4-4-4-2-2-2-2-2---4-4-4-2-2-2-2-2---7-7-7-6-6-6-6-6---7-7-7-6-6-6-6-6--  |


D9 (2x)


[ESTROFE]
      Run,                                 run     baby     run
G|-----9-9-9-9-9-9-9-9---9-9-9-9-9-9-9-9---8-8-8-8-8-8-8-8---8-8-8-8-8-8-8-8--
A|-----7-7-7-6-6-6-6-6---7-7-7-6-6-6-6-6---6-6-6-7-7-7-7-7---6-6-6-7-7-7-7-7--

       You'll see                        the things  to  overcome
G|-----9-9-9-9-9-9-9-9---9-9-9-9-9-9-9-9---8-8-8-8-8-8-8-8---8-8-8-8-8-8-8-8--
A|-----7-7-7-6-6-6-6-6---7-7-7-6-6-6-6-6---6-6-6-7-7-7-7-7---6-6-6-7-7-7-7-7--


[REFRÃO]
          Let's go       insane again       Bring back the   pain again         |
G|-----6-6-6-6-6-6-6-6---6-6-6-6-6-6-6-6---9-9-9-9-9-9-9-9---9-9-9-9-9-9-9-9--  | (2x)
A|-----4-4-4-2-2-2-2-2---4-4-4-2-2-2-2-2---7-7-7-6-6-6-6-6---7-7-7-6-6-6-6-6--  |


D9 (2x)


[SOLO]
e|-------------------------------------------------------  |
b|--5-4-4--5^12-12--12-12-12-11-11--14-14-14-5-5-5-5-5-5-  |(2x)

e|-11-12-11----------9-9---9------------------  |
b|-----------12-12-----------4-4^5-5-5-5-5-5--  |(2x)


[ESTROFE]
      Dream,                              dream your broken dream
G|-----9-9-9-9-9-9-9-9---9-9-9-9-9-9-9-9---8-8-8-8-8-8-8-8---8-8-8-8-8-8-8-8--
A|-----7-7-7-6-6-6-6-6---7-7-7-6-6-6-6-6---6-6-6-7-7-7-7-7---6-6-6-7-7-7-7-7--

       You'll see                       the things I never   see
G|-----9-9-9-9-9-9-9-9---9-9-9-9-9-9-9-9---8-8-8-8-8-8-8-8---8-8-8-8-8-8-8-8--
A|-----7-7-7-6-6-6-6-6---7-7-7-6-6-6-6-6---6-6-6-7-7-7-7-7---6-6-6-7-7-7-7-7--
 

[REFRÃO]
          Let's go       insane again       Bring back the   pain again         |
G|-----6-6-6-6-6-6-6-6---6-6-6-6-6-6-6-6---9-9-9-9-9-9-9-9---9-9-9-9-9-9-9-9--  | (2x)
A|-----4-4-4-2-2-2-2-2---4-4-4-2-2-2-2-2---7-7-7-6-6-6-6-6---7-7-7-6-6-6-6-6--  |


D9


[REFRÃO]
          Let's go       insane again       Bring back the   pain again         |
G|-----6-6-6-6-6-6-6-6---6-6-6-6-6-6-6-6---9-9-9-9-9-9-9-9---9-9-9-9-9-9-9-9--  | (2x)
A|-----4-4-4-2-2-2-2-2---4-4-4-2-2-2-2-2---7-7-7-6-6-6-6-6---7-7-7-6-6-6-6-6--  |


D5 (*toca e deixa soar...)
Composição de Daron Malakian
Colaboração e revisão:
  • Daniel Silva
7.638 exibições
    • ½ Tom
    • A
    • Bb
    • B
    • C
    • Db
    • D
    • Eb
    • E
    • F
    • F#
    • G
    • Ab
  • Adicionar à lista

    0 comentários

    Ver todos os comentários

    Conseguiu tocar?

    2 Tocaram 1 Ainda não

    Grave um vídeo tocando Insane e nos envie!

    00:00 / 00:00
    Outros vídeos desta música
    Repetir Qualidade Automático
    Outros vídeos desta música
    00:00 / 00:00
    Automático

    Cifra Club Pro

    Aproveite o Cifra Club com benefícios exclusivos e sem anúncios
    Cifra Club Pro
    Aproveite o Cifra Club com benefícios exclusivos e sem anúncios
    OK