Cifra Club

Aprenda

Kill Each Other/live Forever

Scars on Broadway

Cifra: Principal (violão e guitarra)
tom: F
(afinação C# G# C# F# A# D#)

(listen to the intro for this part)
D|--------------------------------------|
A|--------------------------------------|
F|----9b11---9b11---9b11--9/10\9---7~---|
C|--------------------------------------|
G|--------------------------------------|
C|--------------------------------------|

(listen for strumming)
D|-------------------------------------------------------------------------------------|
A|-------------13----13----------------------------------------------------------------|
F|-------------12----12----------------------------------------------------------------|
C|--10---10----10----10----------------------------------------------------------------|
G|--10---10----10----x-----------------------------------------------------------------|
C|--10---10----10----x-----------------------------------------------------------------|

I am the one thats calling inside of your......
D|--------------------------------------------------------------------------------------|
A|------------------------------------------------------13--13---13--13-----------------|
F|------------------------------------------------------12--12---12--12-----------------|
C|----0-------------------------------------------------10--10---10--10-----------------|
G|----0-------------------------------------------------10--10---10--10-----------------|
C|----0-------------------------------------------------10--10---10--10-----------------|
  let ring.............................................

  0:33   Nevermind MY NAMEE
D|--------------------------------------------------------------------------------------|
A|----------------------------13---13---13---13-----------------------------------------|
F|----------------------------12---12---12---12-----------------------------------------|
C|----------------------------10---10---10---10-----------------------------------------|
G|----0--0---0---0---0---0----10---10---10---10-----------------------------------------|
C|----0--0---0---0---0---0----10---10---10---10-----------------------------------------|
   PM.......................


   We Dont wanna Believe.  .sometimes daron doesnt play notes after 10...keyboard plays
later on
D|-----------------------------------------------------------------------------|
A|--8---8---8---8---6---6----6---6/---10---10---10---11----11----11\---8-------|
F|----7---7---7---7---5----5---5---5-----9----9----9----10----10----10----7----|
C|-----------------------------------------------------------------------------|
G|-----------------------------------------------------------------------------|
C|-----------------------------------------------------------------------------|

Iam the one thats living inside of you brain   Fade out
D|------------------------------------------------------------------------------|
A|------------------------------------------------------------------------------|
F|------------------------------------------------------------------------------|
C|-----0------------------------------------------------------------------------|
G|-----0------------------------------------------------------------------------|
C|-----0------------------------------------------------------------------------|
Composição de Daron Malakian
Colaboração e revisão:
  • Rafael
  • Gabriel Diniz
  • Henrique Lyra
5.446 exibições
    • ½ Tom
    • A
    • Bb
    • B
    • C
    • Db
    • D
    • Eb
    • E
    • F
    • F#
    • G
    • Ab
  • Adicionar à lista

    0 comentários

    Ver todos os comentários

    Conseguiu tocar?

    1 Tocaram 0 Ainda não

    Grave um vídeo tocando Kill Each Other/live Forever e nos envie!

    00:00 / 00:00
    Outros vídeos desta música
    Repetir Qualidade Automático
    Outros vídeos desta música
    00:00 / 00:00
    Automático

    Cifra Club Pro

    Aproveite o Cifra Club com benefícios exclusivos e sem anúncios
    Cifra Club Pro
    Aproveite o Cifra Club com benefícios exclusivos e sem anúncios
    OK