Cifra Club

Aprenda

Serious

Scars on Broadway

Cifra: Principal (violão e guitarra)
tom: E
[Riff 1 - Estrofes]

(Distorção)
   C#5         C#5           A5         C#5
g|--6-x-x-x-x---6-x-x-x-x---------------6-x-x-x-x---
D|--6-x-x-x-x---6-x-x-x-x---7-x-x-x-x---6-x-x-x-x---
A|--4-x-x-x-x---4-x-x-x-x---7-x-x-x-x---4-x-x-x-x---
E|--------------------------5-x-x-x-x---------------

[Riff 2 - Refrão "A"]

(Clean)
   F#m      B       E       A      F#m      B
e|--5-------2-------4-------5-------5-------2---
b|--7-------4-------5-------5-------7-------4---
g|--6-------4-------4-------6-------6-------4---

[Riff 3 - Refrão "B"]

(Distorção)
   F#5      B5      E5      A5     F#5      B5      E5     A5      F#5      B5
g|--11--------------9---------------11--------------9---------------11-----------
D|--11------9-------9-------7-------11------9-------9-------7-------11------9----
A|--9-------9-------7-------7-------9-------9-------7-------7-------9-------9----
E|----------7---------------5---------------7---------------5---------------7----

[Riff 4]

(Distorção)
   D#5   E5    D#5   F#5   D#5   E5    D#5   C#5
g|--8-----9-----8-----11----8-----9-----8-----6---
D|--8-----9-----8-----11----8-----9-----8-----6---
A|--6-----7-----6-----9-----6-----7-----6-----4---

[Riff 1 - Estrofes]
C#5
Always fall in love and with your ego trippin'
C#5
Everybody's looking for a Sunday mission 
A5
Ain't nobody searching for a second chance 
C#5
I'm just looking for a new romance
(2X)

[Riff 2 - Refrão "A"]
        F#m             B
Because you're too serious
               E         A
You're gonna make me delirious 
         F#m            B
Because you're too serious for...

[Riff 1 - Estrofes]
C#5
Lose you, lose you, losing and I'm feeling lucid 
C#5
Everybody's losing and there's no one choosing 
A5
Ain't nobody searching for a second chance 
C#5
I'm just looking for a new romance 

[Riff 2 - Refrão "A"]
        F#m             B
Because you're too serious
               E         A
You're gonna make me delirious 
         F#m            B
Because you're too serious for...

[Riff 4] (4x)

[Riff 3 - Refrão "B"]
        F#5             B5
Because you're too serious
               E5        A5
You're gonna make me delirious 
        F#5             B5
Because you're too serious
               E5        A5
You're gonna make me delirious 
         F#5            B5
Because you're too serious for me

[Riff 4] (2x)
Composição de Daron Malakian
Colaboração e revisão:
  • Daniel Silva
9.331 exibições
    • ½ Tom
    • A
    • Bb
    • B
    • C
    • Db
    • D
    • Eb
    • E
    • F
    • F#
    • G
    • Ab
  • Adicionar à lista

    0 comentários

    Ver todos os comentários

    Conseguiu tocar?

    0 Tocaram 0 Ainda não

    Grave um vídeo tocando Serious e nos envie!

    00:00 / 00:00
    Outros vídeos desta música
    Repetir Qualidade Automático
    Outros vídeos desta música
    00:00 / 00:00
    Automático

    Cifra Club Pro

    Aproveite o Cifra Club com benefícios exclusivos e sem anúncios
    Cifra Club Pro
    Aproveite o Cifra Club com benefícios exclusivos e sem anúncios
    OK