Cifra Club

Aprenda

Stoner-hate

Scars on Broadway

Cifra: Principal (violão e guitarra)
tom: Db
*afinação = a 6ª corda é afinada 1 tom e meio abaixo e o restante das cordas meio tom abaixo ficando assim:

Eb
Bb
Gb
Db
Ab
Db

[Riff 1]
Db|--0-1-0-1-0----0-1-0-1-0-1-0----0-1-0-1-0-1-0-1-0-1-0-1-0-1-0-1-0-1--
Ab|--0-1-0-1-0----0-1-0-1-0-1-0----0-1-0-1-0-1-0-1-0-1-0-1-0-1-0-1-0-1--
Db|--0-1-0-1-0----0-1-0-1-0-1-0----0-1-0-1-0-1-0-1-0-1-0-1-0-1-0-1-0-1--

[Riff 2]

Ab|--5-6-5-6-5-6-5-6-5-6-5-6-5-6-5-6----8-9-8-9-8-9-8-9-8-9-8-9-8-9-8-9--

[Riff 3]
Gb|----------10~-----------10~-----------10~-----------10~-
Db|--8-8-----10~---8-8-----10~---8-8-----10~---8-8-----10~-
Ab|--8-8-----8~----8-8-----8~----8-8-----8~----8-8-----8~--
Db|--8-8-----------8-8-----------8-8-----------8-8---------
*esse riff é tocado por uma guitarra e um teclado..
a guitarra faz a primeira nota com distorção e o teclado a segunda nota (com algum efeito, não sei qual)
mas para tocar sozinho, pode-se fazer desse jeito


[INTRO]
*obs.: na introdução acontece a mesma coisa que no riff 3

Gb|-------10~-------10~-------10~~~--  |
Db|--8----10~--8----10~--8----10~~~--  | (2x)
Ab|--8----8~---8----8~---8----8~~~---  |
Db|--8---------8---------8-----------  |

[Riff 1] (2x)
       Woooooh

[Riff 2]
Supercalafragalistcexpealadocious
is a word to me. Mamma Mia!

[Riff 2]
Losing all my patience in the hall of fabrications
It's so easy to see. Easy to see

[Riff 1]
When you sing lalalalalalala
Stoner Hate has got your back
California's been invaded by a hippy psychopath
(2x)

[Riff 3]
And I'm rude (rude)
Obnoxious (obnoxious)
With an intent to kill
(x2)

[Riff 2]
Supercalafragalistcexpealadocious
is a word to me. Mamma Mia!

[Riff 2]
Losing all my patience in the hall of fabrications
It's so easy to see. Easy to see

[Riff 1]
When you sing lalalalalalala
Stoner Hate has got your back
California's been invaded by a hippy psychopath
(2x)

[Riff 3]
And I'm rude (rude)
Obnoxious (obnoxious)
We don't intend to kill
(x2)

      Ooohhh Ooohhh Oooohhh Ooohhh Ohh
Db|-------7-----------------7---------- |
Ab|---8-9---9-8-5-8-9---8-9---9-8-5-8-- |(2x)

(Distorção)
Db|---3-4-7-4-3-1-3-4---3-4-7-4-3-1-3--  |
Ab|---3-4-7-4-3-1-3-4---3-4-7-4-3-1-3--  |(2x)
Db|---3-4-7-4-3-1-3-4---3-4-7-4-3-1-3--  |

Motherfucker!

[Riff 2]
Supercalafragalistcexpealadocious
is a word to me. Mamma Mia!

[Riff 2]
Losing all my patience in the hall of fabrications
It's so easy to see. Easy to see

[Riff 1]
When you sing lalalalalalala
Stoner Hate has got your back
California's been invaded by a hippy psychopath
(2x)
Composição de Daron Malakian
Colaboração e revisão:
  • Daniel Silva
3.123 exibições
    • ½ Tom
    • A
    • Bb
    • B
    • C
    • Db
    • D
    • Eb
    • E
    • F
    • F#
    • G
    • Ab
  • Adicionar à lista

    0 comentários

    Ver todos os comentários

    Conseguiu tocar?

    2 Tocaram 0 Ainda não

    Grave um vídeo tocando Stoner-hate e nos envie!

    00:00 / 00:00
    Outros vídeos desta música
    Repetir Qualidade Automático
    Outros vídeos desta música
    00:00 / 00:00
    Automático

    Cifra Club Pro

    Aproveite o Cifra Club com benefícios exclusivos e sem anúncios
    Cifra Club Pro
    Aproveite o Cifra Club com benefícios exclusivos e sem anúncios
    OK